  0
SECTION
  2
HEADER
  9
$ANGBASE
  50
0.0
  9
$ANGDIR
  70
1
  9
$MEASUREMENT
  70
1
  0
ENDSEC
  0
SECTION
  2
TABLES
  0
TABLE
  2
LTYPE
  70
4
  0
LTYPE
  5
40F
  2
CONTINUOUS
  70
0
  3
Solid line
  72
65
  73
0
  40
0.0
  0
LTYPE
  5
410
  2
DASHDOT
 70
0
  3
Dash Dot ____ _ ____ _
 72
65
 73
4
 40
2.0
 49
1.25
 49
-0.25
 49
0.25
 49
-0.25
  0
LTYPE
  5
411
  2
DASHED
 70
0
  3
Dashed __ __ __ __ __
 72
65
 73
2
 40
0.75
 49
0.5
 49
-0.25
  0
LTYPE
  5
43B
  2
DOTTED
 70
0
  3
Dotted .  .  .  .
 72
65
 73
2
 40
0.2
 49
0.0
 49
-0.2
  0
ENDTAB
  0
TABLE
  2
STYLE
  70
4
  0
STYLE
  2
KICAD
  70
0
  40
0
  41
1
  42
1
  50
0
  71
0
  3
isocp.shx
  0
STYLE
  2
KICADB
  70
0
  40
0
  41
1
  42
1
  50
0
  71
0
  3
isocp.shx
  0
STYLE
  2
KICADI
  70
0
  40
0
  41
1
  42
1
  50
15
  71
0
  3
isocp.shx
  0
STYLE
  2
KICADBI
  70
0
  40
0
  41
1
  42
1
  50
15
  71
0
  3
isocp.shx
  0
ENDTAB
  0
TABLE
  2
LAYER
  70
1
  0
LAYER
  2
BLACK
  70
0
  62
7
  6
CONTINUOUS
  0
ENDTAB
  0
ENDSEC
  0
SECTION
  2
ENTITIES
0
LINE
8
BLACK
6
CONTINUOUS
10
85.8333
20
-49.4406
11
85.8336
21
-49.4404
0
LINE
8
BLACK
6
CONTINUOUS
10
85.8336
20
-49.4404
11
85.8343
21
-49.4401
0
LINE
8
BLACK
6
CONTINUOUS
10
85.8343
20
-49.4401
11
85.8351
21
-49.4399
0
LINE
8
BLACK
6
CONTINUOUS
10
85.8351
20
-49.4399
11
85.8359
21
-49.4396
0
LINE
8
BLACK
6
CONTINUOUS
10
85.8359
20
-49.4396
11
85.8367
21
-49.4394
0
LINE
8
BLACK
6
CONTINUOUS
10
85.8367
20
-49.4394
11
85.8375
21
-49.4392
0
LINE
8
BLACK
6
CONTINUOUS
10
85.8375
20
-49.4392
11
85.8383
21
-49.439
0
LINE
8
BLACK
6
CONTINUOUS
10
85.8383
20
-49.439
11
85.8391
21
-49.4388
0
LINE
8
BLACK
6
CONTINUOUS
10
85.8391
20
-49.4388
11
85.8399
21
-49.4387
0
LINE
8
BLACK
6
CONTINUOUS
10
85.8399
20
-49.4387
11
85.8408
21
-49.4386
0
LINE
8
BLACK
6
CONTINUOUS
10
85.8408
20
-49.4386
11
85.8416
21
-49.4386
0
LINE
8
BLACK
6
CONTINUOUS
10
85.8416
20
-49.4386
11
85.8424
21
-49.4385
0
LINE
8
BLACK
6
CONTINUOUS
10
85.8424
20
-49.4385
11
85.8432
21
-49.4385
0
LINE
8
BLACK
6
CONTINUOUS
10
85.8432
20
-49.4385
11
85.8441
21
-49.4385
0
LINE
8
BLACK
6
CONTINUOUS
10
85.8441
20
-49.4385
11
85.8449
21
-49.4386
0
LINE
8
BLACK
6
CONTINUOUS
10
85.8449
20
-49.4386
11
90.61
21
-49.7594
0
LINE
8
BLACK
6
CONTINUOUS
10
90.61
20
-49.7594
11
90.6106
21
-49.7595
0
LINE
8
BLACK
6
CONTINUOUS
10
90.6106
20
-49.7595
11
90.6107
21
-49.7595
0
LINE
8
BLACK
6
CONTINUOUS
10
90.6107
20
-49.7595
11
90.6108
21
-49.7595
0
LINE
8
BLACK
6
CONTINUOUS
10
90.6108
20
-49.7595
11
95.3627
21
-50.2382
0
LINE
8
BLACK
6
CONTINUOUS
10
95.3627
20
-50.2382
11
95.3627
21
-50.2382
0
LINE
8
BLACK
6
CONTINUOUS
10
95.3627
20
-50.2382
11
95.3627
21
-50.2382
0
LINE
8
BLACK
6
CONTINUOUS
10
95.3627
20
-50.2382
11
95.3633
21
-50.2382
0
LINE
8
BLACK
6
CONTINUOUS
10
95.3633
20
-50.2382
11
95.3634
21
-50.2383
0
LINE
8
BLACK
6
CONTINUOUS
10
95.3634
20
-50.2383
11
95.3635
21
-50.2383
0
LINE
8
BLACK
6
CONTINUOUS
10
95.3635
20
-50.2383
11
100.097
21
-50.8742
0
LINE
8
BLACK
6
CONTINUOUS
10
100.097
20
-50.8742
11
100.097
21
-50.8743
0
LINE
8
BLACK
6
CONTINUOUS
10
100.097
20
-50.8743
11
100.098
21
-50.8744
0
LINE
8
BLACK
6
CONTINUOUS
10
100.098
20
-50.8744
11
100.098
21
-50.8744
0
LINE
8
BLACK
6
CONTINUOUS
10
100.098
20
-50.8744
11
104.807
21
-51.6669
0
LINE
8
BLACK
6
CONTINUOUS
10
104.807
20
-51.6669
11
104.807
21
-51.6669
0
LINE
8
BLACK
6
CONTINUOUS
10
104.807
20
-51.6669
11
104.807
21
-51.6669
0
LINE
8
BLACK
6
CONTINUOUS
10
104.807
20
-51.6669
11
104.808
21
-51.667
0
LINE
8
BLACK
6
CONTINUOUS
10
104.808
20
-51.667
11
104.808
21
-51.6671
0
LINE
8
BLACK
6
CONTINUOUS
10
104.808
20
-51.6671
11
104.808
21
-51.6671
0
LINE
8
BLACK
6
CONTINUOUS
10
104.808
20
-51.6671
11
109.489
21
-52.6153
0
LINE
8
BLACK
6
CONTINUOUS
10
109.489
20
-52.6153
11
109.49
21
-52.6155
0
LINE
8
BLACK
6
CONTINUOUS
10
109.49
20
-52.6155
11
109.49
21
-52.6155
0
LINE
8
BLACK
6
CONTINUOUS
10
109.49
20
-52.6155
11
109.49
21
-52.6155
0
LINE
8
BLACK
6
CONTINUOUS
10
109.49
20
-52.6155
11
114.137
21
-53.7184
0
LINE
8
BLACK
6
CONTINUOUS
10
114.137
20
-53.7184
11
114.137
21
-53.7186
0
LINE
8
BLACK
6
CONTINUOUS
10
114.137
20
-53.7186
11
114.137
21
-53.7186
0
LINE
8
BLACK
6
CONTINUOUS
10
114.137
20
-53.7186
11
114.137
21
-53.7186
0
LINE
8
BLACK
6
CONTINUOUS
10
114.137
20
-53.7186
11
118.745
21
-54.975
0
LINE
8
BLACK
6
CONTINUOUS
10
118.745
20
-54.975
11
118.746
21
-54.9752
0
LINE
8
BLACK
6
CONTINUOUS
10
118.746
20
-54.9752
11
118.746
21
-54.9753
0
LINE
8
BLACK
6
CONTINUOUS
10
118.746
20
-54.9753
11
118.746
21
-54.9753
0
LINE
8
BLACK
6
CONTINUOUS
10
118.746
20
-54.9753
11
123.309
21
-56.3837
0
LINE
8
BLACK
6
CONTINUOUS
10
123.309
20
-56.3837
11
123.31
21
-56.3839
0
LINE
8
BLACK
6
CONTINUOUS
10
123.31
20
-56.3839
11
123.31
21
-56.384
0
LINE
8
BLACK
6
CONTINUOUS
10
123.31
20
-56.384
11
123.31
21
-56.384
0
LINE
8
BLACK
6
CONTINUOUS
10
123.31
20
-56.384
11
127.824
21
-57.943
0
LINE
8
BLACK
6
CONTINUOUS
10
127.824
20
-57.943
11
127.825
21
-57.9432
0
LINE
8
BLACK
6
CONTINUOUS
10
127.825
20
-57.9432
11
127.825
21
-57.9432
0
LINE
8
BLACK
6
CONTINUOUS
10
127.825
20
-57.9432
11
130.037
21
-58.769
0
LINE
8
BLACK
6
CONTINUOUS
10
130.037
20
-58.769
11
130.038
21
-58.7693
0
LINE
8
BLACK
6
CONTINUOUS
10
130.038
20
-58.7693
11
130.038
21
-58.7696
0
LINE
8
BLACK
6
CONTINUOUS
10
130.038
20
-58.7696
11
130.039
21
-58.7699
0
LINE
8
BLACK
6
CONTINUOUS
10
130.039
20
-58.7699
11
130.04
21
-58.7703
0
LINE
8
BLACK
6
CONTINUOUS
10
130.04
20
-58.7703
11
130.041
21
-58.7707
0
LINE
8
BLACK
6
CONTINUOUS
10
130.041
20
-58.7707
11
130.041
21
-58.7709
0
LINE
8
BLACK
6
CONTINUOUS
10
130.041
20
-58.7709
11
130.041
21
-58.7709
0
LINE
8
BLACK
6
CONTINUOUS
10
130.041
20
-58.7709
11
130.167
21
-58.8451
0
LINE
8
BLACK
6
CONTINUOUS
10
130.167
20
-58.8451
11
130.167
21
-58.8453
0
LINE
8
BLACK
6
CONTINUOUS
10
130.167
20
-58.8453
11
130.169
21
-58.8467
0
LINE
8
BLACK
6
CONTINUOUS
10
130.169
20
-58.8467
11
130.171
21
-58.848
0
LINE
8
BLACK
6
CONTINUOUS
10
130.171
20
-58.848
11
130.28
21
-58.9453
0
LINE
8
BLACK
6
CONTINUOUS
10
130.28
20
-58.9453
11
130.281
21
-58.9455
0
LINE
8
BLACK
6
CONTINUOUS
10
130.281
20
-58.9455
11
130.282
21
-58.9472
0
LINE
8
BLACK
6
CONTINUOUS
10
130.282
20
-58.9472
11
130.284
21
-58.9489
0
LINE
8
BLACK
6
CONTINUOUS
10
130.284
20
-58.9489
11
130.372
21
-59.0655
0
LINE
8
BLACK
6
CONTINUOUS
10
130.372
20
-59.0655
11
130.372
21
-59.0658
0
LINE
8
BLACK
6
CONTINUOUS
10
130.372
20
-59.0658
11
130.373
21
-59.0678
0
LINE
8
BLACK
6
CONTINUOUS
10
130.373
20
-59.0678
11
130.375
21
-59.0697
0
LINE
8
BLACK
6
CONTINUOUS
10
130.375
20
-59.0697
11
130.439
21
-59.2013
0
LINE
8
BLACK
6
CONTINUOUS
10
130.439
20
-59.2013
11
130.439
21
-59.2016
0
LINE
8
BLACK
6
CONTINUOUS
10
130.439
20
-59.2016
11
130.44
21
-59.2038
0
LINE
8
BLACK
6
CONTINUOUS
10
130.44
20
-59.2038
11
130.44
21
-59.2059
0
LINE
8
BLACK
6
CONTINUOUS
10
130.44
20
-59.2059
11
130.478
21
-59.3474
0
LINE
8
BLACK
6
CONTINUOUS
10
130.478
20
-59.3474
11
130.478
21
-59.3478
0
LINE
8
BLACK
6
CONTINUOUS
10
130.478
20
-59.3478
11
130.478
21
-59.3498
0
LINE
8
BLACK
6
CONTINUOUS
10
130.478
20
-59.3498
11
130.478
21
-59.3518
0
LINE
8
BLACK
6
CONTINUOUS
10
130.478
20
-59.3518
11
130.488
21
-59.4708
0
LINE
8
BLACK
6
CONTINUOUS
10
130.488
20
-59.4708
11
130.488
21
-59.4718
0
LINE
8
BLACK
6
CONTINUOUS
10
130.488
20
-59.4718
11
130.483
21
-80.8677
0
LINE
8
BLACK
6
CONTINUOUS
10
130.483
20
-80.8677
11
130.483
21
-80.8677
0
LINE
8
BLACK
6
CONTINUOUS
10
130.483
20
-80.8677
11
130.47
21
-121.412
0
LINE
8
BLACK
6
CONTINUOUS
10
130.47
20
-121.412
11
130.47
21
-121.412
0
LINE
8
BLACK
6
CONTINUOUS
10
130.47
20
-121.412
11
130.47
21
-121.418
0
LINE
8
BLACK
6
CONTINUOUS
10
130.47
20
-121.418
11
130.49
21
-121.608
0
LINE
8
BLACK
6
CONTINUOUS
10
130.49
20
-121.608
11
130.546
21
-121.79
0
LINE
8
BLACK
6
CONTINUOUS
10
130.546
20
-121.79
11
130.637
21
-121.957
0
LINE
8
BLACK
6
CONTINUOUS
10
130.637
20
-121.957
11
130.758
21
-122.104
0
LINE
8
BLACK
6
CONTINUOUS
10
130.758
20
-122.104
11
130.906
21
-122.224
0
LINE
8
BLACK
6
CONTINUOUS
10
130.906
20
-122.224
11
131.074
21
-122.313
0
LINE
8
BLACK
6
CONTINUOUS
10
131.074
20
-122.313
11
131.256
21
-122.368
0
LINE
8
BLACK
6
CONTINUOUS
10
131.256
20
-122.368
11
131.446
21
-122.387
0
LINE
8
BLACK
6
CONTINUOUS
10
131.446
20
-122.387
11
145.95
21
-122.403
0
LINE
8
BLACK
6
CONTINUOUS
10
145.95
20
-122.403
11
145.951
21
-122.403
0
LINE
8
BLACK
6
CONTINUOUS
10
145.951
20
-122.403
11
145.951
21
-122.403
0
LINE
8
BLACK
6
CONTINUOUS
10
145.951
20
-122.403
11
146.163
21
-122.424
0
LINE
8
BLACK
6
CONTINUOUS
10
146.163
20
-122.424
11
146.163
21
-122.424
0
LINE
8
BLACK
6
CONTINUOUS
10
146.163
20
-122.424
11
146.166
21
-122.424
0
LINE
8
BLACK
6
CONTINUOUS
10
146.166
20
-122.424
11
146.168
21
-122.425
0
LINE
8
BLACK
6
CONTINUOUS
10
146.168
20
-122.425
11
146.372
21
-122.486
0
LINE
8
BLACK
6
CONTINUOUS
10
146.372
20
-122.486
11
146.372
21
-122.487
0
LINE
8
BLACK
6
CONTINUOUS
10
146.372
20
-122.487
11
146.374
21
-122.487
0
LINE
8
BLACK
6
CONTINUOUS
10
146.374
20
-122.487
11
146.376
21
-122.488
0
LINE
8
BLACK
6
CONTINUOUS
10
146.376
20
-122.488
11
146.565
21
-122.588
0
LINE
8
BLACK
6
CONTINUOUS
10
146.565
20
-122.588
11
146.565
21
-122.589
0
LINE
8
BLACK
6
CONTINUOUS
10
146.565
20
-122.589
11
146.567
21
-122.59
0
LINE
8
BLACK
6
CONTINUOUS
10
146.567
20
-122.59
11
146.569
21
-122.591
0
LINE
8
BLACK
6
CONTINUOUS
10
146.569
20
-122.591
11
146.734
21
-122.726
0
LINE
8
BLACK
6
CONTINUOUS
10
146.734
20
-122.726
11
146.734
21
-122.726
0
LINE
8
BLACK
6
CONTINUOUS
10
146.734
20
-122.726
11
146.734
21
-122.726
0
LINE
8
BLACK
6
CONTINUOUS
10
146.734
20
-122.726
11
146.734
21
-122.726
0
LINE
8
BLACK
6
CONTINUOUS
10
146.734
20
-122.726
11
146.736
21
-122.728
0
LINE
8
BLACK
6
CONTINUOUS
10
146.736
20
-122.728
11
146.737
21
-122.729
0
LINE
8
BLACK
6
CONTINUOUS
10
146.737
20
-122.729
11
146.873
21
-122.894
0
LINE
8
BLACK
6
CONTINUOUS
10
146.873
20
-122.894
11
146.873
21
-122.894
0
LINE
8
BLACK
6
CONTINUOUS
10
146.873
20
-122.894
11
146.873
21
-122.894
0
LINE
8
BLACK
6
CONTINUOUS
10
146.873
20
-122.894
11
146.874
21
-122.894
0
LINE
8
BLACK
6
CONTINUOUS
10
146.874
20
-122.894
11
146.875
21
-122.896
0
LINE
8
BLACK
6
CONTINUOUS
10
146.875
20
-122.896
11
146.876
21
-122.898
0
LINE
8
BLACK
6
CONTINUOUS
10
146.876
20
-122.898
11
146.978
21
-123.085
0
LINE
8
BLACK
6
CONTINUOUS
10
146.978
20
-123.085
11
146.978
21
-123.085
0
LINE
8
BLACK
6
CONTINUOUS
10
146.978
20
-123.085
11
146.978
21
-123.085
0
LINE
8
BLACK
6
CONTINUOUS
10
146.978
20
-123.085
11
146.978
21
-123.086
0
LINE
8
BLACK
6
CONTINUOUS
10
146.978
20
-123.086
11
146.979
21
-123.088
0
LINE
8
BLACK
6
CONTINUOUS
10
146.979
20
-123.088
11
146.979
21
-123.09
0
LINE
8
BLACK
6
CONTINUOUS
10
146.979
20
-123.09
11
147.042
21
-123.293
0
LINE
8
BLACK
6
CONTINUOUS
10
147.042
20
-123.293
11
147.043
21
-123.294
0
LINE
8
BLACK
6
CONTINUOUS
10
147.043
20
-123.294
11
147.043
21
-123.296
0
LINE
8
BLACK
6
CONTINUOUS
10
147.043
20
-123.296
11
147.043
21
-123.298
0
LINE
8
BLACK
6
CONTINUOUS
10
147.043
20
-123.298
11
147.066
21
-123.51
0
LINE
8
BLACK
6
CONTINUOUS
10
147.066
20
-123.51
11
147.066
21
-123.511
0
LINE
8
BLACK
6
CONTINUOUS
10
147.066
20
-123.511
11
147.066
21
-123.513
0
LINE
8
BLACK
6
CONTINUOUS
10
147.066
20
-123.513
11
147.066
21
-123.515
0
LINE
8
BLACK
6
CONTINUOUS
10
147.066
20
-123.515
11
147.046
21
-123.727
0
LINE
8
BLACK
6
CONTINUOUS
10
147.046
20
-123.727
11
147.046
21
-123.728
0
LINE
8
BLACK
6
CONTINUOUS
10
147.046
20
-123.728
11
147.046
21
-123.73
0
LINE
8
BLACK
6
CONTINUOUS
10
147.046
20
-123.73
11
147.046
21
-123.732
0
LINE
8
BLACK
6
CONTINUOUS
10
147.046
20
-123.732
11
146.985
21
-123.937
0
LINE
8
BLACK
6
CONTINUOUS
10
146.985
20
-123.937
11
146.985
21
-123.937
0
LINE
8
BLACK
6
CONTINUOUS
10
146.985
20
-123.937
11
146.984
21
-123.939
0
LINE
8
BLACK
6
CONTINUOUS
10
146.984
20
-123.939
11
146.983
21
-123.941
0
LINE
8
BLACK
6
CONTINUOUS
10
146.983
20
-123.941
11
146.885
21
-124.13
0
LINE
8
BLACK
6
CONTINUOUS
10
146.885
20
-124.13
11
146.885
21
-124.131
0
LINE
8
BLACK
6
CONTINUOUS
10
146.885
20
-124.131
11
146.884
21
-124.132
0
LINE
8
BLACK
6
CONTINUOUS
10
146.884
20
-124.132
11
146.883
21
-124.133
0
LINE
8
BLACK
6
CONTINUOUS
10
146.883
20
-124.133
11
146.859
21
-124.169
0
LINE
8
BLACK
6
CONTINUOUS
10
146.859
20
-124.169
11
135.731
21
-143.713
0
LINE
8
BLACK
6
CONTINUOUS
10
135.731
20
-143.713
11
135.729
21
-143.716
0
LINE
8
BLACK
6
CONTINUOUS
10
135.729
20
-143.716
11
135.729
21
-143.716
0
LINE
8
BLACK
6
CONTINUOUS
10
135.729
20
-143.716
11
135.494
21
-144.017
0
LINE
8
BLACK
6
CONTINUOUS
10
135.494
20
-144.017
11
135.494
21
-144.017
0
LINE
8
BLACK
6
CONTINUOUS
10
135.494
20
-144.017
11
135.494
21
-144.017
0
LINE
8
BLACK
6
CONTINUOUS
10
135.494
20
-144.017
11
135.494
21
-144.018
0
LINE
8
BLACK
6
CONTINUOUS
10
135.494
20
-144.018
11
135.492
21
-144.019
0
LINE
8
BLACK
6
CONTINUOUS
10
135.492
20
-144.019
11
135.491
21
-144.021
0
LINE
8
BLACK
6
CONTINUOUS
10
135.491
20
-144.021
11
135.2
21
-144.272
0
LINE
8
BLACK
6
CONTINUOUS
10
135.2
20
-144.272
11
135.2
21
-144.272
0
LINE
8
BLACK
6
CONTINUOUS
10
135.2
20
-144.272
11
135.198
21
-144.274
0
LINE
8
BLACK
6
CONTINUOUS
10
135.198
20
-144.274
11
135.196
21
-144.275
0
LINE
8
BLACK
6
CONTINUOUS
10
135.196
20
-144.275
11
134.863
21
-144.465
0
LINE
8
BLACK
6
CONTINUOUS
10
134.863
20
-144.465
11
134.863
21
-144.465
0
LINE
8
BLACK
6
CONTINUOUS
10
134.863
20
-144.465
11
134.861
21
-144.466
0
LINE
8
BLACK
6
CONTINUOUS
10
134.861
20
-144.466
11
134.858
21
-144.467
0
LINE
8
BLACK
6
CONTINUOUS
10
134.858
20
-144.467
11
134.494
21
-144.589
0
LINE
8
BLACK
6
CONTINUOUS
10
134.494
20
-144.589
11
134.494
21
-144.589
0
LINE
8
BLACK
6
CONTINUOUS
10
134.494
20
-144.589
11
134.492
21
-144.589
0
LINE
8
BLACK
6
CONTINUOUS
10
134.492
20
-144.589
11
134.49
21
-144.59
0
LINE
8
BLACK
6
CONTINUOUS
10
134.49
20
-144.59
11
134.109
21
-144.639
0
LINE
8
BLACK
6
CONTINUOUS
10
134.109
20
-144.639
11
134.109
21
-144.639
0
LINE
8
BLACK
6
CONTINUOUS
10
134.109
20
-144.639
11
134.106
21
-144.639
0
LINE
8
BLACK
6
CONTINUOUS
10
134.106
20
-144.639
11
134.104
21
-144.639
0
LINE
8
BLACK
6
CONTINUOUS
10
134.104
20
-144.639
11
133.721
21
-144.612
0
LINE
8
BLACK
6
CONTINUOUS
10
133.721
20
-144.612
11
133.721
21
-144.612
0
LINE
8
BLACK
6
CONTINUOUS
10
133.721
20
-144.612
11
133.719
21
-144.612
0
LINE
8
BLACK
6
CONTINUOUS
10
133.719
20
-144.612
11
133.716
21
-144.612
0
LINE
8
BLACK
6
CONTINUOUS
10
133.716
20
-144.612
11
133.346
21
-144.512
0
LINE
8
BLACK
6
CONTINUOUS
10
133.346
20
-144.512
11
133.346
21
-144.511
0
LINE
8
BLACK
6
CONTINUOUS
10
133.346
20
-144.511
11
133.343
21
-144.511
0
LINE
8
BLACK
6
CONTINUOUS
10
133.343
20
-144.511
11
133.341
21
-144.51
0
LINE
8
BLACK
6
CONTINUOUS
10
133.341
20
-144.51
11
132.997
21
-144.34
0
LINE
8
BLACK
6
CONTINUOUS
10
132.997
20
-144.34
11
132.997
21
-144.34
0
LINE
8
BLACK
6
CONTINUOUS
10
132.997
20
-144.34
11
132.996
21
-144.339
0
LINE
8
BLACK
6
CONTINUOUS
10
132.996
20
-144.339
11
132.995
21
-144.338
0
LINE
8
BLACK
6
CONTINUOUS
10
132.995
20
-144.338
11
132.965
21
-144.319
0
LINE
8
BLACK
6
CONTINUOUS
10
132.965
20
-144.319
11
131.208
21
-143.229
0
LINE
8
BLACK
6
CONTINUOUS
10
131.208
20
-143.229
11
128.054
21
-141.411
0
LINE
8
BLACK
6
CONTINUOUS
10
128.054
20
-141.411
11
124.827
21
-139.727
0
LINE
8
BLACK
6
CONTINUOUS
10
124.827
20
-139.727
11
121.532
21
-138.18
0
LINE
8
BLACK
6
CONTINUOUS
10
121.532
20
-138.18
11
118.175
21
-136.772
0
LINE
8
BLACK
6
CONTINUOUS
10
118.175
20
-136.772
11
114.762
21
-135.506
0
LINE
8
BLACK
6
CONTINUOUS
10
114.762
20
-135.506
11
111.299
21
-134.384
0
LINE
8
BLACK
6
CONTINUOUS
10
111.299
20
-134.384
11
107.791
21
-133.408
0
LINE
8
BLACK
6
CONTINUOUS
10
107.791
20
-133.408
11
107.79
21
-133.408
0
LINE
8
BLACK
6
CONTINUOUS
10
107.79
20
-133.408
11
107.789
21
-133.408
0
LINE
8
BLACK
6
CONTINUOUS
10
107.789
20
-133.408
11
107.788
21
-133.407
0
LINE
8
BLACK
6
CONTINUOUS
10
107.788
20
-133.407
11
107.787
21
-133.407
0
LINE
8
BLACK
6
CONTINUOUS
10
107.787
20
-133.407
11
107.786
21
-133.406
0
LINE
8
BLACK
6
CONTINUOUS
10
107.786
20
-133.406
11
107.785
21
-133.406
0
LINE
8
BLACK
6
CONTINUOUS
10
107.785
20
-133.406
11
107.784
21
-133.405
0
LINE
8
BLACK
6
CONTINUOUS
10
107.784
20
-133.405
11
107.783
21
-133.405
0
LINE
8
BLACK
6
CONTINUOUS
10
107.783
20
-133.405
11
107.783
21
-133.404
0
LINE
8
BLACK
6
CONTINUOUS
10
107.783
20
-133.404
11
107.391
21
-133.303
0
LINE
8
BLACK
6
CONTINUOUS
10
107.391
20
-133.303
11
101.176
21
-131.788
0
LINE
8
BLACK
6
CONTINUOUS
10
101.176
20
-131.788
11
94.9296
21
-130.414
0
LINE
8
BLACK
6
CONTINUOUS
10
94.9296
20
-130.414
11
88.6532
21
-129.181
0
LINE
8
BLACK
6
CONTINUOUS
10
88.6532
20
-129.181
11
82.3505
21
-128.092
0
LINE
8
BLACK
6
CONTINUOUS
10
82.3505
20
-128.092
11
76.0248
21
-127.146
0
LINE
8
BLACK
6
CONTINUOUS
10
76.0248
20
-127.146
11
69.6791
21
-126.343
0
LINE
8
BLACK
6
CONTINUOUS
10
69.6791
20
-126.343
11
63.3169
21
-125.685
0
LINE
8
BLACK
6
CONTINUOUS
10
63.3169
20
-125.685
11
56.9414
21
-125.171
0
LINE
8
BLACK
6
CONTINUOUS
10
56.9414
20
-125.171
11
50.5559
21
-124.802
0
LINE
8
BLACK
6
CONTINUOUS
10
50.5559
20
-124.802
11
44.1636
21
-124.578
0
LINE
8
BLACK
6
CONTINUOUS
10
44.1636
20
-124.578
11
37.7677
21
-124.5
0
LINE
8
BLACK
6
CONTINUOUS
10
37.7677
20
-124.5
11
37.4917
21
-124.499
0
LINE
8
BLACK
6
CONTINUOUS
10
37.4917
20
-124.499
11
37.4908
21
-124.499
0
LINE
8
BLACK
6
CONTINUOUS
10
37.4908
20
-124.499
11
37.1017
21
-124.468
0
LINE
8
BLACK
6
CONTINUOUS
10
37.1017
20
-124.468
11
37.1013
21
-124.467
0
LINE
8
BLACK
6
CONTINUOUS
10
37.1013
20
-124.467
11
37.0991
21
-124.467
0
LINE
8
BLACK
6
CONTINUOUS
10
37.0991
20
-124.467
11
37.0969
21
-124.467
0
LINE
8
BLACK
6
CONTINUOUS
10
37.0969
20
-124.467
11
36.7211
21
-124.36
0
LINE
8
BLACK
6
CONTINUOUS
10
36.7211
20
-124.36
11
36.7207
21
-124.36
0
LINE
8
BLACK
6
CONTINUOUS
10
36.7207
20
-124.36
11
36.7186
21
-124.359
0
LINE
8
BLACK
6
CONTINUOUS
10
36.7186
20
-124.359
11
36.7165
21
-124.359
0
LINE
8
BLACK
6
CONTINUOUS
10
36.7165
20
-124.359
11
36.3685
21
-124.181
0
LINE
8
BLACK
6
CONTINUOUS
10
36.3685
20
-124.181
11
36.3682
21
-124.181
0
LINE
8
BLACK
6
CONTINUOUS
10
36.3682
20
-124.181
11
36.3663
21
-124.18
0
LINE
8
BLACK
6
CONTINUOUS
10
36.3663
20
-124.18
11
36.3644
21
-124.179
0
LINE
8
BLACK
6
CONTINUOUS
10
36.3644
20
-124.179
11
36.0575
21
-123.937
0
LINE
8
BLACK
6
CONTINUOUS
10
36.0575
20
-123.937
11
36.0575
21
-123.937
0
LINE
8
BLACK
6
CONTINUOUS
10
36.0575
20
-123.937
11
36.0575
21
-123.937
0
LINE
8
BLACK
6
CONTINUOUS
10
36.0575
20
-123.937
11
36.0572
21
-123.937
0
LINE
8
BLACK
6
CONTINUOUS
10
36.0572
20
-123.937
11
36.0555
21
-123.935
0
LINE
8
BLACK
6
CONTINUOUS
10
36.0555
20
-123.935
11
36.0539
21
-123.934
0
LINE
8
BLACK
6
CONTINUOUS
10
36.0539
20
-123.934
11
35.7998
21
-123.637
0
LINE
8
BLACK
6
CONTINUOUS
10
35.7998
20
-123.637
11
35.7995
21
-123.637
0
LINE
8
BLACK
6
CONTINUOUS
10
35.7995
20
-123.637
11
35.7982
21
-123.635
0
LINE
8
BLACK
6
CONTINUOUS
10
35.7982
20
-123.635
11
35.797
21
-123.633
0
LINE
8
BLACK
6
CONTINUOUS
10
35.797
20
-123.633
11
35.6052
21
-123.293
0
LINE
8
BLACK
6
CONTINUOUS
10
35.6052
20
-123.293
11
35.6052
21
-123.293
0
LINE
8
BLACK
6
CONTINUOUS
10
35.6052
20
-123.293
11
35.6052
21
-123.293
0
LINE
8
BLACK
6
CONTINUOUS
10
35.6052
20
-123.293
11
35.605
21
-123.293
0
LINE
8
BLACK
6
CONTINUOUS
10
35.605
20
-123.293
11
35.6042
21
-123.291
0
LINE
8
BLACK
6
CONTINUOUS
10
35.6042
20
-123.291
11
35.6032
21
-123.288
0
LINE
8
BLACK
6
CONTINUOUS
10
35.6032
20
-123.288
11
35.4812
21
-122.917
0
LINE
8
BLACK
6
CONTINUOUS
10
35.4812
20
-122.917
11
35.4811
21
-122.917
0
LINE
8
BLACK
6
CONTINUOUS
10
35.4811
20
-122.917
11
35.4807
21
-122.915
0
LINE
8
BLACK
6
CONTINUOUS
10
35.4807
20
-122.915
11
35.4802
21
-122.913
0
LINE
8
BLACK
6
CONTINUOUS
10
35.4802
20
-122.913
11
35.4335
21
-122.548
0
LINE
8
BLACK
6
CONTINUOUS
10
35.4335
20
-122.548
11
35.4334
21
-122.548
0
LINE
8
BLACK
6
CONTINUOUS
10
35.4334
20
-122.548
11
35.433
21
-122.544
0
LINE
8
BLACK
6
CONTINUOUS
10
35.433
20
-122.544
11
35.4409
21
-68.2361
0
LINE
8
BLACK
6
CONTINUOUS
10
35.4409
20
-68.2361
11
35.4412
21
-68.2324
0
LINE
8
BLACK
6
CONTINUOUS
10
35.4412
20
-68.2324
11
35.4427
21
-68.2277
0
LINE
8
BLACK
6
CONTINUOUS
10
35.4427
20
-68.2277
11
35.4433
21
-68.2265
0
LINE
8
BLACK
6
CONTINUOUS
10
35.4433
20
-68.2265
11
35.7557
21
-67.4988
0
LINE
8
BLACK
6
CONTINUOUS
10
35.7557
20
-67.4988
11
35.7558
21
-67.4985
0
LINE
8
BLACK
6
CONTINUOUS
10
35.7558
20
-67.4985
11
35.7569
21
-67.4965
0
LINE
8
BLACK
6
CONTINUOUS
10
35.7569
20
-67.4965
11
35.758
21
-67.4945
0
LINE
8
BLACK
6
CONTINUOUS
10
35.758
20
-67.4945
11
36.2064
21
-66.8405
0
LINE
8
BLACK
6
CONTINUOUS
10
36.2064
20
-66.8405
11
36.2064
21
-66.8405
0
LINE
8
BLACK
6
CONTINUOUS
10
36.2064
20
-66.8405
11
36.2064
21
-66.8405
0
LINE
8
BLACK
6
CONTINUOUS
10
36.2064
20
-66.8405
11
36.2066
21
-66.8402
0
LINE
8
BLACK
6
CONTINUOUS
10
36.2066
20
-66.8402
11
36.2081
21
-66.8385
0
LINE
8
BLACK
6
CONTINUOUS
10
36.2081
20
-66.8385
11
36.2095
21
-66.8367
0
LINE
8
BLACK
6
CONTINUOUS
10
36.2095
20
-66.8367
11
36.7764
21
-66.2823
0
LINE
8
BLACK
6
CONTINUOUS
10
36.7764
20
-66.2823
11
36.7766
21
-66.282
0
LINE
8
BLACK
6
CONTINUOUS
10
36.7766
20
-66.282
11
36.7776
21
-66.2812
0
LINE
8
BLACK
6
CONTINUOUS
10
36.7776
20
-66.2812
11
36.7785
21
-66.2804
0
LINE
8
BLACK
6
CONTINUOUS
10
36.7785
20
-66.2804
11
36.8776
21
-66.2033
0
LINE
8
BLACK
6
CONTINUOUS
10
36.8776
20
-66.2033
11
36.8779
21
-66.2031
0
LINE
8
BLACK
6
CONTINUOUS
10
36.8779
20
-66.2031
11
36.8821
21
-66.2005
0
LINE
8
BLACK
6
CONTINUOUS
10
36.8821
20
-66.2005
11
36.8867
21
-66.1988
0
LINE
8
BLACK
6
CONTINUOUS
10
36.8867
20
-66.1988
11
36.887
21
-66.1988
0
LINE
8
BLACK
6
CONTINUOUS
10
36.887
20
-66.1988
11
39.3769
21
-64.1447
0
LINE
8
BLACK
6
CONTINUOUS
10
39.3769
20
-64.1447
11
39.3775
21
-64.1442
0
LINE
8
BLACK
6
CONTINUOUS
10
39.3775
20
-64.1442
11
39.3777
21
-64.1441
0
LINE
8
BLACK
6
CONTINUOUS
10
39.3777
20
-64.1441
11
39.3778
21
-64.144
0
LINE
8
BLACK
6
CONTINUOUS
10
39.3778
20
-64.144
11
41.9703
21
-62.2031
0
LINE
8
BLACK
6
CONTINUOUS
10
41.9703
20
-62.2031
11
41.971
21
-62.2027
0
LINE
8
BLACK
6
CONTINUOUS
10
41.971
20
-62.2027
11
41.9711
21
-62.2026
0
LINE
8
BLACK
6
CONTINUOUS
10
41.9711
20
-62.2026
11
41.9713
21
-62.2025
0
LINE
8
BLACK
6
CONTINUOUS
10
41.9713
20
-62.2025
11
44.6523
21
-60.3859
0
LINE
8
BLACK
6
CONTINUOUS
10
44.6523
20
-60.3859
11
44.653
21
-60.3854
0
LINE
8
BLACK
6
CONTINUOUS
10
44.653
20
-60.3854
11
44.6532
21
-60.3853
0
LINE
8
BLACK
6
CONTINUOUS
10
44.6532
20
-60.3853
11
44.6533
21
-60.3852
0
LINE
8
BLACK
6
CONTINUOUS
10
44.6533
20
-60.3852
11
47.417
21
-58.6969
0
LINE
8
BLACK
6
CONTINUOUS
10
47.417
20
-58.6969
11
47.4177
21
-58.6965
0
LINE
8
BLACK
6
CONTINUOUS
10
47.4177
20
-58.6965
11
47.4178
21
-58.6964
0
LINE
8
BLACK
6
CONTINUOUS
10
47.4178
20
-58.6964
11
47.418
21
-58.6964
0
LINE
8
BLACK
6
CONTINUOUS
10
47.418
20
-58.6964
11
50.2581
21
-57.1401
0
LINE
8
BLACK
6
CONTINUOUS
10
50.2581
20
-57.1401
11
50.2588
21
-57.1398
0
LINE
8
BLACK
6
CONTINUOUS
10
50.2588
20
-57.1398
11
50.259
21
-57.1397
0
LINE
8
BLACK
6
CONTINUOUS
10
50.259
20
-57.1397
11
50.2592
21
-57.1396
0
LINE
8
BLACK
6
CONTINUOUS
10
50.2592
20
-57.1396
11
53.1694
21
-55.7189
0
LINE
8
BLACK
6
CONTINUOUS
10
53.1694
20
-55.7189
11
53.1701
21
-55.7185
0
LINE
8
BLACK
6
CONTINUOUS
10
53.1701
20
-55.7185
11
53.1703
21
-55.7185
0
LINE
8
BLACK
6
CONTINUOUS
10
53.1703
20
-55.7185
11
53.1705
21
-55.7184
0
LINE
8
BLACK
6
CONTINUOUS
10
53.1705
20
-55.7184
11
56.1444
21
-54.4364
0
LINE
8
BLACK
6
CONTINUOUS
10
56.1444
20
-54.4364
11
56.1452
21
-54.4361
0
LINE
8
BLACK
6
CONTINUOUS
10
56.1452
20
-54.4361
11
56.1454
21
-54.436
0
LINE
8
BLACK
6
CONTINUOUS
10
56.1454
20
-54.436
11
56.1455
21
-54.4359
0
LINE
8
BLACK
6
CONTINUOUS
10
56.1455
20
-54.4359
11
59.1766
21
-53.2954
0
LINE
8
BLACK
6
CONTINUOUS
10
59.1766
20
-53.2954
11
59.1773
21
-53.2951
0
LINE
8
BLACK
6
CONTINUOUS
10
59.1773
20
-53.2951
11
59.1775
21
-53.2951
0
LINE
8
BLACK
6
CONTINUOUS
10
59.1775
20
-53.2951
11
59.1777
21
-53.295
0
LINE
8
BLACK
6
CONTINUOUS
10
59.1777
20
-53.295
11
62.2591
21
-52.2985
0
LINE
8
BLACK
6
CONTINUOUS
10
62.2591
20
-52.2985
11
62.2591
21
-52.2985
0
LINE
8
BLACK
6
CONTINUOUS
10
62.2591
20
-52.2985
11
62.2591
21
-52.2985
0
LINE
8
BLACK
6
CONTINUOUS
10
62.2591
20
-52.2985
11
62.2599
21
-52.2983
0
LINE
8
BLACK
6
CONTINUOUS
10
62.2599
20
-52.2983
11
62.26
21
-52.2982
0
LINE
8
BLACK
6
CONTINUOUS
10
62.26
20
-52.2982
11
62.2602
21
-52.2982
0
LINE
8
BLACK
6
CONTINUOUS
10
62.2602
20
-52.2982
11
65.3852
21
-51.448
0
LINE
8
BLACK
6
CONTINUOUS
10
65.3852
20
-51.448
11
65.3852
21
-51.448
0
LINE
8
BLACK
6
CONTINUOUS
10
65.3852
20
-51.448
11
65.3852
21
-51.448
0
LINE
8
BLACK
6
CONTINUOUS
10
65.3852
20
-51.448
11
65.3859
21
-51.4478
0
LINE
8
BLACK
6
CONTINUOUS
10
65.3859
20
-51.4478
11
65.3861
21
-51.4477
0
LINE
8
BLACK
6
CONTINUOUS
10
65.3861
20
-51.4477
11
65.3863
21
-51.4477
0
LINE
8
BLACK
6
CONTINUOUS
10
65.3863
20
-51.4477
11
68.5478
21
-50.7456
0
LINE
8
BLACK
6
CONTINUOUS
10
68.5478
20
-50.7456
11
68.5486
21
-50.7455
0
LINE
8
BLACK
6
CONTINUOUS
10
68.5486
20
-50.7455
11
68.5488
21
-50.7454
0
LINE
8
BLACK
6
CONTINUOUS
10
68.5488
20
-50.7454
11
68.549
21
-50.7454
0
LINE
8
BLACK
6
CONTINUOUS
10
68.549
20
-50.7454
11
71.74
21
-50.193
0
LINE
8
BLACK
6
CONTINUOUS
10
71.74
20
-50.193
11
71.7408
21
-50.1929
0
LINE
8
BLACK
6
CONTINUOUS
10
71.7408
20
-50.1929
11
71.741
21
-50.1929
0
LINE
8
BLACK
6
CONTINUOUS
10
71.741
20
-50.1929
11
71.7412
21
-50.1929
0
LINE
8
BLACK
6
CONTINUOUS
10
71.7412
20
-50.1929
11
74.9548
21
-49.7914
0
LINE
8
BLACK
6
CONTINUOUS
10
74.9548
20
-49.7914
11
74.9555
21
-49.7914
0
LINE
8
BLACK
6
CONTINUOUS
10
74.9555
20
-49.7914
11
74.9557
21
-49.7913
0
LINE
8
BLACK
6
CONTINUOUS
10
74.9557
20
-49.7913
11
74.9559
21
-49.7913
0
LINE
8
BLACK
6
CONTINUOUS
10
74.9559
20
-49.7913
11
78.1848
21
-49.5417
0
LINE
8
BLACK
6
CONTINUOUS
10
78.1848
20
-49.5417
11
78.1856
21
-49.5417
0
LINE
8
BLACK
6
CONTINUOUS
10
78.1856
20
-49.5417
11
78.1858
21
-49.5417
0
LINE
8
BLACK
6
CONTINUOUS
10
78.1858
20
-49.5417
11
78.186
21
-49.5417
0
LINE
8
BLACK
6
CONTINUOUS
10
78.186
20
-49.5417
11
81.4231
21
-49.4444
0
LINE
8
BLACK
6
CONTINUOUS
10
81.4231
20
-49.4444
11
81.4236
21
-49.4444
0
LINE
8
BLACK
6
CONTINUOUS
10
81.4236
20
-49.4444
11
81.4237
21
-49.4444
0
LINE
8
BLACK
6
CONTINUOUS
10
81.4237
20
-49.4444
11
81.8667
21
-49.443
0
LINE
8
BLACK
6
CONTINUOUS
10
81.8667
20
-49.443
11
81.8668
21
-49.443
0
LINE
8
BLACK
6
CONTINUOUS
10
81.8668
20
-49.443
11
81.8678
21
-49.443
0
LINE
8
BLACK
6
CONTINUOUS
10
81.8678
20
-49.443
11
81.8679
21
-49.443
0
LINE
8
BLACK
6
CONTINUOUS
10
81.8679
20
-49.443
11
85.8333
21
-49.4406
0
LINE
8
BLACK
6
CONTINUOUS
10
85.848
20
-49.4902
11
85.8444
21
-49.4906
0
LINE
8
BLACK
6
CONTINUOUS
10
85.8444
20
-49.4906
11
81.8681
21
-49.493
0
LINE
8
BLACK
6
CONTINUOUS
10
81.8681
20
-49.493
11
81.8681
21
-49.493
0
LINE
8
BLACK
6
CONTINUOUS
10
81.8681
20
-49.493
11
81.4242
21
-49.4944
0
LINE
8
BLACK
6
CONTINUOUS
10
81.4242
20
-49.4944
11
78.1881
21
-49.5916
0
LINE
8
BLACK
6
CONTINUOUS
10
78.1881
20
-49.5916
11
74.9604
21
-49.8411
0
LINE
8
BLACK
6
CONTINUOUS
10
74.9604
20
-49.8411
11
71.748
21
-50.2424
0
LINE
8
BLACK
6
CONTINUOUS
10
71.748
20
-50.2424
11
68.5581
21
-50.7946
0
LINE
8
BLACK
6
CONTINUOUS
10
68.5581
20
-50.7946
11
65.3977
21
-51.4964
0
LINE
8
BLACK
6
CONTINUOUS
10
65.3977
20
-51.4964
11
62.2739
21
-52.3463
0
LINE
8
BLACK
6
CONTINUOUS
10
62.2739
20
-52.3463
11
59.1936
21
-53.3424
0
LINE
8
BLACK
6
CONTINUOUS
10
59.1936
20
-53.3424
11
56.1637
21
-54.4825
0
LINE
8
BLACK
6
CONTINUOUS
10
56.1637
20
-54.4825
11
53.1908
21
-55.7641
0
LINE
8
BLACK
6
CONTINUOUS
10
53.1908
20
-55.7641
11
50.2816
21
-57.1843
0
LINE
8
BLACK
6
CONTINUOUS
10
50.2816
20
-57.1843
11
47.4425
21
-58.7399
0
LINE
8
BLACK
6
CONTINUOUS
10
47.4425
20
-58.7399
11
44.6799
21
-60.4276
0
LINE
8
BLACK
6
CONTINUOUS
10
44.6799
20
-60.4276
11
41.9998
21
-62.2435
0
LINE
8
BLACK
6
CONTINUOUS
10
41.9998
20
-62.2435
11
39.4083
21
-64.1837
0
LINE
8
BLACK
6
CONTINUOUS
10
39.4083
20
-64.1837
11
36.9105
21
-66.2441
0
LINE
8
BLACK
6
CONTINUOUS
10
36.9105
20
-66.2441
11
36.9099
21
-66.2446
0
LINE
8
BLACK
6
CONTINUOUS
10
36.9099
20
-66.2446
11
36.909
21
-66.2453
0
LINE
8
BLACK
6
CONTINUOUS
10
36.909
20
-66.2453
11
36.908
21
-66.246
0
LINE
8
BLACK
6
CONTINUOUS
10
36.908
20
-66.246
11
36.907
21
-66.2466
0
LINE
8
BLACK
6
CONTINUOUS
10
36.907
20
-66.2466
11
36.9059
21
-66.2472
0
LINE
8
BLACK
6
CONTINUOUS
10
36.9059
20
-66.2472
11
36.9049
21
-66.2477
0
LINE
8
BLACK
6
CONTINUOUS
10
36.9049
20
-66.2477
11
36.9038
21
-66.2481
0
LINE
8
BLACK
6
CONTINUOUS
10
36.9038
20
-66.2481
11
36.9027
21
-66.2485
0
LINE
8
BLACK
6
CONTINUOUS
10
36.9027
20
-66.2485
11
36.9016
21
-66.2489
0
LINE
8
BLACK
6
CONTINUOUS
10
36.9016
20
-66.2489
11
36.9004
21
-66.2492
0
LINE
8
BLACK
6
CONTINUOUS
10
36.9004
20
-66.2492
11
36.8999
21
-66.2493
0
LINE
8
BLACK
6
CONTINUOUS
10
36.8999
20
-66.2493
11
36.8103
21
-66.319
0
LINE
8
BLACK
6
CONTINUOUS
10
36.8103
20
-66.319
11
36.2462
21
-66.8708
0
LINE
8
BLACK
6
CONTINUOUS
10
36.2462
20
-66.8708
11
35.8006
21
-67.5208
0
LINE
8
BLACK
6
CONTINUOUS
10
35.8006
20
-67.5208
11
35.4909
21
-68.2425
0
LINE
8
BLACK
6
CONTINUOUS
10
35.4909
20
-68.2425
11
35.483
21
-122.541
0
LINE
8
BLACK
6
CONTINUOUS
10
35.483
20
-122.541
11
35.5295
21
-122.904
0
LINE
8
BLACK
6
CONTINUOUS
10
35.5295
20
-122.904
11
35.65
21
-123.271
0
LINE
8
BLACK
6
CONTINUOUS
10
35.65
20
-123.271
11
35.8393
21
-123.607
0
LINE
8
BLACK
6
CONTINUOUS
10
35.8393
20
-123.607
11
36.0903
21
-123.899
0
LINE
8
BLACK
6
CONTINUOUS
10
36.0903
20
-123.899
11
36.3934
21
-124.138
0
LINE
8
BLACK
6
CONTINUOUS
10
36.3934
20
-124.138
11
36.737
21
-124.313
0
LINE
8
BLACK
6
CONTINUOUS
10
36.737
20
-124.313
11
37.1081
21
-124.418
0
LINE
8
BLACK
6
CONTINUOUS
10
37.1081
20
-124.418
11
37.4941
21
-124.449
0
LINE
8
BLACK
6
CONTINUOUS
10
37.4941
20
-124.449
11
37.7693
21
-124.45
0
LINE
8
BLACK
6
CONTINUOUS
10
37.7693
20
-124.45
11
37.7694
21
-124.45
0
LINE
8
BLACK
6
CONTINUOUS
10
37.7694
20
-124.45
11
44.1645
21
-124.528
0
LINE
8
BLACK
6
CONTINUOUS
10
44.1645
20
-124.528
11
44.1646
21
-124.528
0
LINE
8
BLACK
6
CONTINUOUS
10
44.1646
20
-124.528
11
44.1647
21
-124.528
0
LINE
8
BLACK
6
CONTINUOUS
10
44.1647
20
-124.528
11
44.1648
21
-124.528
0
LINE
8
BLACK
6
CONTINUOUS
10
44.1648
20
-124.528
11
44.165
21
-124.529
0
LINE
8
BLACK
6
CONTINUOUS
10
44.165
20
-124.529
11
44.1651
21
-124.529
0
LINE
8
BLACK
6
CONTINUOUS
10
44.1651
20
-124.529
11
50.5579
21
-124.753
0
LINE
8
BLACK
6
CONTINUOUS
10
50.5579
20
-124.753
11
50.5582
21
-124.753
0
LINE
8
BLACK
6
CONTINUOUS
10
50.5582
20
-124.753
11
50.5584
21
-124.753
0
LINE
8
BLACK
6
CONTINUOUS
10
50.5584
20
-124.753
11
50.5585
21
-124.753
0
LINE
8
BLACK
6
CONTINUOUS
10
50.5585
20
-124.753
11
56.9445
21
-125.122
0
LINE
8
BLACK
6
CONTINUOUS
10
56.9445
20
-125.122
11
56.9446
21
-125.122
0
LINE
8
BLACK
6
CONTINUOUS
10
56.9446
20
-125.122
11
56.9447
21
-125.122
0
LINE
8
BLACK
6
CONTINUOUS
10
56.9447
20
-125.122
11
56.9448
21
-125.122
0
LINE
8
BLACK
6
CONTINUOUS
10
56.9448
20
-125.122
11
56.945
21
-125.122
0
LINE
8
BLACK
6
CONTINUOUS
10
56.945
20
-125.122
11
56.9451
21
-125.122
0
LINE
8
BLACK
6
CONTINUOUS
10
56.9451
20
-125.122
11
63.3211
21
-125.635
0
LINE
8
BLACK
6
CONTINUOUS
10
63.3211
20
-125.635
11
63.3212
21
-125.635
0
LINE
8
BLACK
6
CONTINUOUS
10
63.3212
20
-125.635
11
63.3213
21
-125.635
0
LINE
8
BLACK
6
CONTINUOUS
10
63.3213
20
-125.635
11
63.3215
21
-125.635
0
LINE
8
BLACK
6
CONTINUOUS
10
63.3215
20
-125.635
11
63.3216
21
-125.635
0
LINE
8
BLACK
6
CONTINUOUS
10
63.3216
20
-125.635
11
63.3218
21
-125.635
0
LINE
8
BLACK
6
CONTINUOUS
10
63.3218
20
-125.635
11
69.6845
21
-126.294
0
LINE
8
BLACK
6
CONTINUOUS
10
69.6845
20
-126.294
11
69.6845
21
-126.294
0
LINE
8
BLACK
6
CONTINUOUS
10
69.6845
20
-126.294
11
69.6846
21
-126.294
0
LINE
8
BLACK
6
CONTINUOUS
10
69.6846
20
-126.294
11
69.6848
21
-126.294
0
LINE
8
BLACK
6
CONTINUOUS
10
69.6848
20
-126.294
11
69.685
21
-126.294
0
LINE
8
BLACK
6
CONTINUOUS
10
69.685
20
-126.294
11
69.6851
21
-126.294
0
LINE
8
BLACK
6
CONTINUOUS
10
69.6851
20
-126.294
11
76.0312
21
-127.096
0
LINE
8
BLACK
6
CONTINUOUS
10
76.0312
20
-127.096
11
76.0313
21
-127.096
0
LINE
8
BLACK
6
CONTINUOUS
10
76.0313
20
-127.096
11
76.0314
21
-127.096
0
LINE
8
BLACK
6
CONTINUOUS
10
76.0314
20
-127.096
11
76.0316
21
-127.096
0
LINE
8
BLACK
6
CONTINUOUS
10
76.0316
20
-127.096
11
76.0318
21
-127.096
0
LINE
8
BLACK
6
CONTINUOUS
10
76.0318
20
-127.096
11
76.0319
21
-127.096
0
LINE
8
BLACK
6
CONTINUOUS
10
76.0319
20
-127.096
11
82.3582
21
-128.043
0
LINE
8
BLACK
6
CONTINUOUS
10
82.3582
20
-128.043
11
82.3585
21
-128.043
0
LINE
8
BLACK
6
CONTINUOUS
10
82.3585
20
-128.043
11
82.3586
21
-128.043
0
LINE
8
BLACK
6
CONTINUOUS
10
82.3586
20
-128.043
11
82.3588
21
-128.043
0
LINE
8
BLACK
6
CONTINUOUS
10
82.3588
20
-128.043
11
88.662
21
-129.132
0
LINE
8
BLACK
6
CONTINUOUS
10
88.662
20
-129.132
11
88.6623
21
-129.132
0
LINE
8
BLACK
6
CONTINUOUS
10
88.6623
20
-129.132
11
88.6624
21
-129.132
0
LINE
8
BLACK
6
CONTINUOUS
10
88.6624
20
-129.132
11
88.6626
21
-129.132
0
LINE
8
BLACK
6
CONTINUOUS
10
88.6626
20
-129.132
11
94.9395
21
-130.365
0
LINE
8
BLACK
6
CONTINUOUS
10
94.9395
20
-130.365
11
94.9398
21
-130.365
0
LINE
8
BLACK
6
CONTINUOUS
10
94.9398
20
-130.365
11
94.9399
21
-130.365
0
LINE
8
BLACK
6
CONTINUOUS
10
94.9399
20
-130.365
11
94.9401
21
-130.365
0
LINE
8
BLACK
6
CONTINUOUS
10
94.9401
20
-130.365
11
101.187
21
-131.739
0
LINE
8
BLACK
6
CONTINUOUS
10
101.187
20
-131.739
11
101.187
21
-131.739
0
LINE
8
BLACK
6
CONTINUOUS
10
101.187
20
-131.739
11
101.188
21
-131.739
0
LINE
8
BLACK
6
CONTINUOUS
10
101.188
20
-131.739
11
101.188
21
-131.739
0
LINE
8
BLACK
6
CONTINUOUS
10
101.188
20
-131.739
11
101.188
21
-131.739
0
LINE
8
BLACK
6
CONTINUOUS
10
101.188
20
-131.739
11
101.188
21
-131.739
0
LINE
8
BLACK
6
CONTINUOUS
10
101.188
20
-131.739
11
107.403
21
-133.255
0
LINE
8
BLACK
6
CONTINUOUS
10
107.403
20
-133.255
11
107.403
21
-133.255
0
LINE
8
BLACK
6
CONTINUOUS
10
107.403
20
-133.255
11
107.403
21
-133.255
0
LINE
8
BLACK
6
CONTINUOUS
10
107.403
20
-133.255
11
107.403
21
-133.255
0
LINE
8
BLACK
6
CONTINUOUS
10
107.403
20
-133.255
11
107.804
21
-133.358
0
LINE
8
BLACK
6
CONTINUOUS
10
107.804
20
-133.358
11
107.805
21
-133.358
0
LINE
8
BLACK
6
CONTINUOUS
10
107.805
20
-133.358
11
107.805
21
-133.358
0
LINE
8
BLACK
6
CONTINUOUS
10
107.805
20
-133.358
11
107.806
21
-133.358
0
LINE
8
BLACK
6
CONTINUOUS
10
107.806
20
-133.358
11
107.806
21
-133.359
0
LINE
8
BLACK
6
CONTINUOUS
10
107.806
20
-133.359
11
107.807
21
-133.359
0
LINE
8
BLACK
6
CONTINUOUS
10
107.807
20
-133.359
11
107.807
21
-133.359
0
LINE
8
BLACK
6
CONTINUOUS
10
107.807
20
-133.359
11
107.808
21
-133.359
0
LINE
8
BLACK
6
CONTINUOUS
10
107.808
20
-133.359
11
107.808
21
-133.36
0
LINE
8
BLACK
6
CONTINUOUS
10
107.808
20
-133.36
11
107.809
21
-133.36
0
LINE
8
BLACK
6
CONTINUOUS
10
107.809
20
-133.36
11
107.809
21
-133.36
0
LINE
8
BLACK
6
CONTINUOUS
10
107.809
20
-133.36
11
107.81
21
-133.36
0
LINE
8
BLACK
6
CONTINUOUS
10
107.81
20
-133.36
11
107.81
21
-133.361
0
LINE
8
BLACK
6
CONTINUOUS
10
107.81
20
-133.361
11
107.811
21
-133.361
0
LINE
8
BLACK
6
CONTINUOUS
10
107.811
20
-133.361
11
107.811
21
-133.361
0
LINE
8
BLACK
6
CONTINUOUS
10
107.811
20
-133.361
11
107.812
21
-133.361
0
LINE
8
BLACK
6
CONTINUOUS
10
107.812
20
-133.361
11
107.812
21
-133.362
0
LINE
8
BLACK
6
CONTINUOUS
10
107.812
20
-133.362
11
107.813
21
-133.362
0
LINE
8
BLACK
6
CONTINUOUS
10
107.813
20
-133.362
11
107.813
21
-133.362
0
LINE
8
BLACK
6
CONTINUOUS
10
107.813
20
-133.362
11
107.813
21
-133.363
0
LINE
8
BLACK
6
CONTINUOUS
10
107.813
20
-133.363
11
111.312
21
-134.336
0
LINE
8
BLACK
6
CONTINUOUS
10
111.312
20
-134.336
11
111.312
21
-134.336
0
LINE
8
BLACK
6
CONTINUOUS
10
111.312
20
-134.336
11
111.313
21
-134.337
0
LINE
8
BLACK
6
CONTINUOUS
10
111.313
20
-134.337
11
114.778
21
-135.459
0
LINE
8
BLACK
6
CONTINUOUS
10
114.778
20
-135.459
11
114.778
21
-135.459
0
LINE
8
BLACK
6
CONTINUOUS
10
114.778
20
-135.459
11
118.193
21
-136.726
0
LINE
8
BLACK
6
CONTINUOUS
10
118.193
20
-136.726
11
118.193
21
-136.726
0
LINE
8
BLACK
6
CONTINUOUS
10
118.193
20
-136.726
11
118.193
21
-136.726
0
LINE
8
BLACK
6
CONTINUOUS
10
118.193
20
-136.726
11
121.552
21
-138.134
0
LINE
8
BLACK
6
CONTINUOUS
10
121.552
20
-138.134
11
121.552
21
-138.135
0
LINE
8
BLACK
6
CONTINUOUS
10
121.552
20
-138.135
11
124.849
21
-139.682
0
LINE
8
BLACK
6
CONTINUOUS
10
124.849
20
-139.682
11
124.849
21
-139.683
0
LINE
8
BLACK
6
CONTINUOUS
10
124.849
20
-139.683
11
128.078
21
-141.367
0
LINE
8
BLACK
6
CONTINUOUS
10
128.078
20
-141.367
11
128.079
21
-141.368
0
LINE
8
BLACK
6
CONTINUOUS
10
128.079
20
-141.368
11
131.234
21
-143.186
0
LINE
8
BLACK
6
CONTINUOUS
10
131.234
20
-143.186
11
131.234
21
-143.186
0
LINE
8
BLACK
6
CONTINUOUS
10
131.234
20
-143.186
11
131.235
21
-143.186
0
LINE
8
BLACK
6
CONTINUOUS
10
131.235
20
-143.186
11
132.991
21
-144.277
0
LINE
8
BLACK
6
CONTINUOUS
10
132.991
20
-144.277
11
132.991
21
-144.277
0
LINE
8
BLACK
6
CONTINUOUS
10
132.991
20
-144.277
11
132.991
21
-144.277
0
LINE
8
BLACK
6
CONTINUOUS
10
132.991
20
-144.277
11
133.021
21
-144.295
0
LINE
8
BLACK
6
CONTINUOUS
10
133.021
20
-144.295
11
133.361
21
-144.464
0
LINE
8
BLACK
6
CONTINUOUS
10
133.361
20
-144.464
11
133.727
21
-144.563
0
LINE
8
BLACK
6
CONTINUOUS
10
133.727
20
-144.563
11
134.105
21
-144.589
0
LINE
8
BLACK
6
CONTINUOUS
10
134.105
20
-144.589
11
134.481
21
-144.541
0
LINE
8
BLACK
6
CONTINUOUS
10
134.481
20
-144.541
11
134.84
21
-144.42
0
LINE
8
BLACK
6
CONTINUOUS
10
134.84
20
-144.42
11
135.169
21
-144.233
0
LINE
8
BLACK
6
CONTINUOUS
10
135.169
20
-144.233
11
135.456
21
-143.985
0
LINE
8
BLACK
6
CONTINUOUS
10
135.456
20
-143.985
11
135.689
21
-143.685
0
LINE
8
BLACK
6
CONTINUOUS
10
135.689
20
-143.685
11
146.816
21
-124.142
0
LINE
8
BLACK
6
CONTINUOUS
10
146.816
20
-124.142
11
146.817
21
-124.141
0
LINE
8
BLACK
6
CONTINUOUS
10
146.817
20
-124.141
11
146.841
21
-124.106
0
LINE
8
BLACK
6
CONTINUOUS
10
146.841
20
-124.106
11
146.938
21
-123.92
0
LINE
8
BLACK
6
CONTINUOUS
10
146.938
20
-123.92
11
146.997
21
-123.72
0
LINE
8
BLACK
6
CONTINUOUS
10
146.997
20
-123.72
11
147.016
21
-123.513
0
LINE
8
BLACK
6
CONTINUOUS
10
147.016
20
-123.513
11
146.994
21
-123.306
0
LINE
8
BLACK
6
CONTINUOUS
10
146.994
20
-123.306
11
146.932
21
-123.107
0
LINE
8
BLACK
6
CONTINUOUS
10
146.932
20
-123.107
11
146.833
21
-122.924
0
LINE
8
BLACK
6
CONTINUOUS
10
146.833
20
-122.924
11
146.701
21
-122.763
0
LINE
8
BLACK
6
CONTINUOUS
10
146.701
20
-122.763
11
146.539
21
-122.631
0
LINE
8
BLACK
6
CONTINUOUS
10
146.539
20
-122.631
11
146.355
21
-122.534
0
LINE
8
BLACK
6
CONTINUOUS
10
146.355
20
-122.534
11
146.156
21
-122.473
0
LINE
8
BLACK
6
CONTINUOUS
10
146.156
20
-122.473
11
145.947
21
-122.453
0
LINE
8
BLACK
6
CONTINUOUS
10
145.947
20
-122.453
11
131.444
21
-122.437
0
LINE
8
BLACK
6
CONTINUOUS
10
131.444
20
-122.437
11
131.443
21
-122.437
0
LINE
8
BLACK
6
CONTINUOUS
10
131.443
20
-122.437
11
131.443
21
-122.437
0
LINE
8
BLACK
6
CONTINUOUS
10
131.443
20
-122.437
11
131.248
21
-122.418
0
LINE
8
BLACK
6
CONTINUOUS
10
131.248
20
-122.418
11
131.248
21
-122.418
0
LINE
8
BLACK
6
CONTINUOUS
10
131.248
20
-122.418
11
131.246
21
-122.417
0
LINE
8
BLACK
6
CONTINUOUS
10
131.246
20
-122.417
11
131.244
21
-122.417
0
LINE
8
BLACK
6
CONTINUOUS
10
131.244
20
-122.417
11
131.057
21
-122.36
0
LINE
8
BLACK
6
CONTINUOUS
10
131.057
20
-122.36
11
131.056
21
-122.36
0
LINE
8
BLACK
6
CONTINUOUS
10
131.056
20
-122.36
11
131.054
21
-122.359
0
LINE
8
BLACK
6
CONTINUOUS
10
131.054
20
-122.359
11
131.052
21
-122.359
0
LINE
8
BLACK
6
CONTINUOUS
10
131.052
20
-122.359
11
130.88
21
-122.267
0
LINE
8
BLACK
6
CONTINUOUS
10
130.88
20
-122.267
11
130.88
21
-122.267
0
LINE
8
BLACK
6
CONTINUOUS
10
130.88
20
-122.267
11
130.878
21
-122.266
0
LINE
8
BLACK
6
CONTINUOUS
10
130.878
20
-122.266
11
130.876
21
-122.264
0
LINE
8
BLACK
6
CONTINUOUS
10
130.876
20
-122.264
11
130.725
21
-122.141
0
LINE
8
BLACK
6
CONTINUOUS
10
130.725
20
-122.141
11
130.724
21
-122.141
0
LINE
8
BLACK
6
CONTINUOUS
10
130.724
20
-122.141
11
130.723
21
-122.139
0
LINE
8
BLACK
6
CONTINUOUS
10
130.723
20
-122.139
11
130.721
21
-122.138
0
LINE
8
BLACK
6
CONTINUOUS
10
130.721
20
-122.138
11
130.597
21
-121.987
0
LINE
8
BLACK
6
CONTINUOUS
10
130.597
20
-121.987
11
130.596
21
-121.987
0
LINE
8
BLACK
6
CONTINUOUS
10
130.596
20
-121.987
11
130.595
21
-121.985
0
LINE
8
BLACK
6
CONTINUOUS
10
130.595
20
-121.985
11
130.594
21
-121.983
0
LINE
8
BLACK
6
CONTINUOUS
10
130.594
20
-121.983
11
130.501
21
-121.811
0
LINE
8
BLACK
6
CONTINUOUS
10
130.501
20
-121.811
11
130.501
21
-121.811
0
LINE
8
BLACK
6
CONTINUOUS
10
130.501
20
-121.811
11
130.5
21
-121.809
0
LINE
8
BLACK
6
CONTINUOUS
10
130.5
20
-121.809
11
130.499
21
-121.807
0
LINE
8
BLACK
6
CONTINUOUS
10
130.499
20
-121.807
11
130.442
21
-121.62
0
LINE
8
BLACK
6
CONTINUOUS
10
130.442
20
-121.62
11
130.441
21
-121.62
0
LINE
8
BLACK
6
CONTINUOUS
10
130.441
20
-121.62
11
130.441
21
-121.618
0
LINE
8
BLACK
6
CONTINUOUS
10
130.441
20
-121.618
11
130.441
21
-121.616
0
LINE
8
BLACK
6
CONTINUOUS
10
130.441
20
-121.616
11
130.42
21
-121.422
0
LINE
8
BLACK
6
CONTINUOUS
10
130.42
20
-121.422
11
130.42
21
-121.421
0
LINE
8
BLACK
6
CONTINUOUS
10
130.42
20
-121.421
11
130.42
21
-121.42
0
LINE
8
BLACK
6
CONTINUOUS
10
130.42
20
-121.42
11
130.42
21
-121.419
0
LINE
8
BLACK
6
CONTINUOUS
10
130.42
20
-121.419
11
130.42
21
-121.413
0
LINE
8
BLACK
6
CONTINUOUS
10
130.42
20
-121.413
11
130.42
21
-121.413
0
LINE
8
BLACK
6
CONTINUOUS
10
130.42
20
-121.413
11
130.433
21
-80.8677
0
LINE
8
BLACK
6
CONTINUOUS
10
130.433
20
-80.8677
11
130.438
21
-59.474
0
LINE
8
BLACK
6
CONTINUOUS
10
130.438
20
-59.474
11
130.429
21
-59.358
0
LINE
8
BLACK
6
CONTINUOUS
10
130.429
20
-59.358
11
130.393
21
-59.221
0
LINE
8
BLACK
6
CONTINUOUS
10
130.393
20
-59.221
11
130.331
21
-59.0938
0
LINE
8
BLACK
6
CONTINUOUS
10
130.331
20
-59.0938
11
130.245
21
-58.981
0
LINE
8
BLACK
6
CONTINUOUS
10
130.245
20
-58.981
11
130.14
21
-58.887
0
LINE
8
BLACK
6
CONTINUOUS
10
130.14
20
-58.887
11
130.017
21
-58.8151
0
LINE
8
BLACK
6
CONTINUOUS
10
130.017
20
-58.8151
11
127.808
21
-57.9902
0
LINE
8
BLACK
6
CONTINUOUS
10
127.808
20
-57.9902
11
123.294
21
-56.4314
0
LINE
8
BLACK
6
CONTINUOUS
10
123.294
20
-56.4314
11
118.731
21
-55.0232
0
LINE
8
BLACK
6
CONTINUOUS
10
118.731
20
-55.0232
11
114.125
21
-53.767
0
LINE
8
BLACK
6
CONTINUOUS
10
114.125
20
-53.767
11
109.479
21
-52.6643
0
LINE
8
BLACK
6
CONTINUOUS
10
109.479
20
-52.6643
11
104.799
21
-51.7162
0
LINE
8
BLACK
6
CONTINUOUS
10
104.799
20
-51.7162
11
100.09
21
-50.9237
0
LINE
8
BLACK
6
CONTINUOUS
10
100.09
20
-50.9237
11
95.3572
21
-50.2879
0
LINE
8
BLACK
6
CONTINUOUS
10
95.3572
20
-50.2879
11
90.6062
21
-49.8093
0
LINE
8
BLACK
6
CONTINUOUS
10
90.6062
20
-49.8093
11
85.8516
21
-49.4891
0
LINE
8
BLACK
6
CONTINUOUS
10
85.8516
20
-49.4891
11
85.848
21
-49.4902
0
LINE
8
BLACK
6
CONTINUOUS
10
133.365
20
-141.887
11
133.364
21
-141.887
0
LINE
8
BLACK
6
CONTINUOUS
10
133.364
20
-141.887
11
133.364
21
-141.887
0
LINE
8
BLACK
6
CONTINUOUS
10
133.364
20
-141.887
11
133.266
21
-141.884
0
LINE
8
BLACK
6
CONTINUOUS
10
133.266
20
-141.884
11
133.266
21
-141.884
0
LINE
8
BLACK
6
CONTINUOUS
10
133.266
20
-141.884
11
133.266
21
-141.884
0
LINE
8
BLACK
6
CONTINUOUS
10
133.266
20
-141.884
11
133.265
21
-141.884
0
LINE
8
BLACK
6
CONTINUOUS
10
133.265
20
-141.884
11
133.17
21
-141.862
0
LINE
8
BLACK
6
CONTINUOUS
10
133.17
20
-141.862
11
133.17
21
-141.862
0
LINE
8
BLACK
6
CONTINUOUS
10
133.17
20
-141.862
11
133.17
21
-141.862
0
LINE
8
BLACK
6
CONTINUOUS
10
133.17
20
-141.862
11
133.169
21
-141.862
0
LINE
8
BLACK
6
CONTINUOUS
10
133.169
20
-141.862
11
133.08
21
-141.822
0
LINE
8
BLACK
6
CONTINUOUS
10
133.08
20
-141.822
11
133.08
21
-141.822
0
LINE
8
BLACK
6
CONTINUOUS
10
133.08
20
-141.822
11
133.08
21
-141.822
0
LINE
8
BLACK
6
CONTINUOUS
10
133.08
20
-141.822
11
133.08
21
-141.822
0
LINE
8
BLACK
6
CONTINUOUS
10
133.08
20
-141.822
11
133.077
21
-141.821
0
LINE
8
BLACK
6
CONTINUOUS
10
133.077
20
-141.821
11
133.077
21
-141.821
0
LINE
8
BLACK
6
CONTINUOUS
10
133.077
20
-141.821
11
121.823
21
-135.313
0
LINE
8
BLACK
6
CONTINUOUS
10
121.823
20
-135.313
11
121.822
21
-135.312
0
LINE
8
BLACK
6
CONTINUOUS
10
121.822
20
-135.312
11
121.822
21
-135.312
0
LINE
8
BLACK
6
CONTINUOUS
10
121.822
20
-135.312
11
121.743
21
-135.256
0
LINE
8
BLACK
6
CONTINUOUS
10
121.743
20
-135.256
11
121.743
21
-135.256
0
LINE
8
BLACK
6
CONTINUOUS
10
121.743
20
-135.256
11
121.743
21
-135.255
0
LINE
8
BLACK
6
CONTINUOUS
10
121.743
20
-135.255
11
121.742
21
-135.255
0
LINE
8
BLACK
6
CONTINUOUS
10
121.742
20
-135.255
11
121.676
21
-135.184
0
LINE
8
BLACK
6
CONTINUOUS
10
121.676
20
-135.184
11
121.676
21
-135.184
0
LINE
8
BLACK
6
CONTINUOUS
10
121.676
20
-135.184
11
121.675
21
-135.183
0
LINE
8
BLACK
6
CONTINUOUS
10
121.675
20
-135.183
11
121.675
21
-135.183
0
LINE
8
BLACK
6
CONTINUOUS
10
121.675
20
-135.183
11
121.623
21
-135.1
0
LINE
8
BLACK
6
CONTINUOUS
10
121.623
20
-135.1
11
121.623
21
-135.1
0
LINE
8
BLACK
6
CONTINUOUS
10
121.623
20
-135.1
11
121.623
21
-135.1
0
LINE
8
BLACK
6
CONTINUOUS
10
121.623
20
-135.1
11
121.623
21
-135.1
0
LINE
8
BLACK
6
CONTINUOUS
10
121.623
20
-135.1
11
121.623
21
-135.1
0
LINE
8
BLACK
6
CONTINUOUS
10
121.623
20
-135.1
11
121.623
21
-135.099
0
LINE
8
BLACK
6
CONTINUOUS
10
121.623
20
-135.099
11
121.588
21
-135.008
0
LINE
8
BLACK
6
CONTINUOUS
10
121.588
20
-135.008
11
121.588
21
-135.008
0
LINE
8
BLACK
6
CONTINUOUS
10
121.588
20
-135.008
11
121.588
21
-135.008
0
LINE
8
BLACK
6
CONTINUOUS
10
121.588
20
-135.008
11
121.588
21
-135.007
0
LINE
8
BLACK
6
CONTINUOUS
10
121.588
20
-135.007
11
121.572
21
-134.911
0
LINE
8
BLACK
6
CONTINUOUS
10
121.572
20
-134.911
11
121.572
21
-134.911
0
LINE
8
BLACK
6
CONTINUOUS
10
121.572
20
-134.911
11
121.572
21
-134.91
0
LINE
8
BLACK
6
CONTINUOUS
10
121.572
20
-134.91
11
121.572
21
-134.91
0
LINE
8
BLACK
6
CONTINUOUS
10
121.572
20
-134.91
11
121.574
21
-134.812
0
LINE
8
BLACK
6
CONTINUOUS
10
121.574
20
-134.812
11
121.574
21
-134.812
0
LINE
8
BLACK
6
CONTINUOUS
10
121.574
20
-134.812
11
121.574
21
-134.812
0
LINE
8
BLACK
6
CONTINUOUS
10
121.574
20
-134.812
11
121.574
21
-134.812
0
LINE
8
BLACK
6
CONTINUOUS
10
121.574
20
-134.812
11
121.596
21
-134.716
0
LINE
8
BLACK
6
CONTINUOUS
10
121.596
20
-134.716
11
121.596
21
-134.716
0
LINE
8
BLACK
6
CONTINUOUS
10
121.596
20
-134.716
11
121.596
21
-134.716
0
LINE
8
BLACK
6
CONTINUOUS
10
121.596
20
-134.716
11
121.596
21
-134.715
0
LINE
8
BLACK
6
CONTINUOUS
10
121.596
20
-134.715
11
121.636
21
-134.626
0
LINE
8
BLACK
6
CONTINUOUS
10
121.636
20
-134.626
11
121.636
21
-134.626
0
LINE
8
BLACK
6
CONTINUOUS
10
121.636
20
-134.626
11
121.636
21
-134.626
0
LINE
8
BLACK
6
CONTINUOUS
10
121.636
20
-134.626
11
121.636
21
-134.626
0
LINE
8
BLACK
6
CONTINUOUS
10
121.636
20
-134.626
11
121.638
21
-134.623
0
LINE
8
BLACK
6
CONTINUOUS
10
121.638
20
-134.623
11
121.638
21
-134.623
0
LINE
8
BLACK
6
CONTINUOUS
10
121.638
20
-134.623
11
128.134
21
-123.372
0
LINE
8
BLACK
6
CONTINUOUS
10
128.134
20
-123.372
11
128.134
21
-123.372
0
LINE
8
BLACK
6
CONTINUOUS
10
128.134
20
-123.372
11
128.191
21
-123.293
0
LINE
8
BLACK
6
CONTINUOUS
10
128.191
20
-123.293
11
128.191
21
-123.293
0
LINE
8
BLACK
6
CONTINUOUS
10
128.191
20
-123.293
11
128.191
21
-123.292
0
LINE
8
BLACK
6
CONTINUOUS
10
128.191
20
-123.292
11
128.191
21
-123.292
0
LINE
8
BLACK
6
CONTINUOUS
10
128.191
20
-123.292
11
128.262
21
-123.225
0
LINE
8
BLACK
6
CONTINUOUS
10
128.262
20
-123.225
11
128.262
21
-123.225
0
LINE
8
BLACK
6
CONTINUOUS
10
128.262
20
-123.225
11
128.263
21
-123.225
0
LINE
8
BLACK
6
CONTINUOUS
10
128.263
20
-123.225
11
128.263
21
-123.224
0
LINE
8
BLACK
6
CONTINUOUS
10
128.263
20
-123.224
11
128.346
21
-123.173
0
LINE
8
BLACK
6
CONTINUOUS
10
128.346
20
-123.173
11
128.346
21
-123.173
0
LINE
8
BLACK
6
CONTINUOUS
10
128.346
20
-123.173
11
128.346
21
-123.173
0
LINE
8
BLACK
6
CONTINUOUS
10
128.346
20
-123.173
11
128.346
21
-123.173
0
LINE
8
BLACK
6
CONTINUOUS
10
128.346
20
-123.173
11
128.346
21
-123.172
0
LINE
8
BLACK
6
CONTINUOUS
10
128.346
20
-123.172
11
128.347
21
-123.172
0
LINE
8
BLACK
6
CONTINUOUS
10
128.347
20
-123.172
11
128.438
21
-123.138
0
LINE
8
BLACK
6
CONTINUOUS
10
128.438
20
-123.138
11
128.438
21
-123.138
0
LINE
8
BLACK
6
CONTINUOUS
10
128.438
20
-123.138
11
128.438
21
-123.138
0
LINE
8
BLACK
6
CONTINUOUS
10
128.438
20
-123.138
11
128.438
21
-123.138
0
LINE
8
BLACK
6
CONTINUOUS
10
128.438
20
-123.138
11
128.438
21
-123.138
0
LINE
8
BLACK
6
CONTINUOUS
10
128.438
20
-123.138
11
128.439
21
-123.137
0
LINE
8
BLACK
6
CONTINUOUS
10
128.439
20
-123.137
11
128.535
21
-123.121
0
LINE
8
BLACK
6
CONTINUOUS
10
128.535
20
-123.121
11
128.535
21
-123.121
0
LINE
8
BLACK
6
CONTINUOUS
10
128.535
20
-123.121
11
128.535
21
-123.121
0
LINE
8
BLACK
6
CONTINUOUS
10
128.535
20
-123.121
11
128.536
21
-123.121
0
LINE
8
BLACK
6
CONTINUOUS
10
128.536
20
-123.121
11
128.536
21
-123.121
0
LINE
8
BLACK
6
CONTINUOUS
10
128.536
20
-123.121
11
128.634
21
-123.124
0
LINE
8
BLACK
6
CONTINUOUS
10
128.634
20
-123.124
11
128.634
21
-123.124
0
LINE
8
BLACK
6
CONTINUOUS
10
128.634
20
-123.124
11
128.634
21
-123.124
0
LINE
8
BLACK
6
CONTINUOUS
10
128.634
20
-123.124
11
128.635
21
-123.124
0
LINE
8
BLACK
6
CONTINUOUS
10
128.635
20
-123.124
11
128.73
21
-123.146
0
LINE
8
BLACK
6
CONTINUOUS
10
128.73
20
-123.146
11
128.73
21
-123.146
0
LINE
8
BLACK
6
CONTINUOUS
10
128.73
20
-123.146
11
128.73
21
-123.146
0
LINE
8
BLACK
6
CONTINUOUS
10
128.73
20
-123.146
11
128.731
21
-123.146
0
LINE
8
BLACK
6
CONTINUOUS
10
128.731
20
-123.146
11
128.82
21
-123.186
0
LINE
8
BLACK
6
CONTINUOUS
10
128.82
20
-123.186
11
128.82
21
-123.186
0
LINE
8
BLACK
6
CONTINUOUS
10
128.82
20
-123.186
11
128.82
21
-123.186
0
LINE
8
BLACK
6
CONTINUOUS
10
128.82
20
-123.186
11
128.82
21
-123.186
0
LINE
8
BLACK
6
CONTINUOUS
10
128.82
20
-123.186
11
128.823
21
-123.187
0
LINE
8
BLACK
6
CONTINUOUS
10
128.823
20
-123.187
11
128.823
21
-123.187
0
LINE
8
BLACK
6
CONTINUOUS
10
128.823
20
-123.187
11
128.823
21
-123.187
0
LINE
8
BLACK
6
CONTINUOUS
10
128.823
20
-123.187
11
128.823
21
-123.187
0
LINE
8
BLACK
6
CONTINUOUS
10
128.823
20
-123.187
11
128.823
21
-123.188
0
LINE
8
BLACK
6
CONTINUOUS
10
128.823
20
-123.188
11
128.823
21
-123.188
0
LINE
8
BLACK
6
CONTINUOUS
10
128.823
20
-123.188
11
140.082
21
-129.688
0
LINE
8
BLACK
6
CONTINUOUS
10
140.082
20
-129.688
11
140.082
21
-129.688
0
LINE
8
BLACK
6
CONTINUOUS
10
140.082
20
-129.688
11
140.161
21
-129.745
0
LINE
8
BLACK
6
CONTINUOUS
10
140.161
20
-129.745
11
140.161
21
-129.745
0
LINE
8
BLACK
6
CONTINUOUS
10
140.161
20
-129.745
11
140.162
21
-129.745
0
LINE
8
BLACK
6
CONTINUOUS
10
140.162
20
-129.745
11
140.162
21
-129.745
0
LINE
8
BLACK
6
CONTINUOUS
10
140.162
20
-129.745
11
140.229
21
-129.816
0
LINE
8
BLACK
6
CONTINUOUS
10
140.229
20
-129.816
11
140.229
21
-129.816
0
LINE
8
BLACK
6
CONTINUOUS
10
140.229
20
-129.816
11
140.229
21
-129.817
0
LINE
8
BLACK
6
CONTINUOUS
10
140.229
20
-129.817
11
140.23
21
-129.817
0
LINE
8
BLACK
6
CONTINUOUS
10
140.23
20
-129.817
11
140.281
21
-129.9
0
LINE
8
BLACK
6
CONTINUOUS
10
140.281
20
-129.9
11
140.281
21
-129.9
0
LINE
8
BLACK
6
CONTINUOUS
10
140.281
20
-129.9
11
140.281
21
-129.9
0
LINE
8
BLACK
6
CONTINUOUS
10
140.281
20
-129.9
11
140.281
21
-129.9
0
LINE
8
BLACK
6
CONTINUOUS
10
140.281
20
-129.9
11
140.282
21
-129.9
0
LINE
8
BLACK
6
CONTINUOUS
10
140.282
20
-129.9
11
140.282
21
-129.901
0
LINE
8
BLACK
6
CONTINUOUS
10
140.282
20
-129.901
11
140.316
21
-129.992
0
LINE
8
BLACK
6
CONTINUOUS
10
140.316
20
-129.992
11
140.316
21
-129.992
0
LINE
8
BLACK
6
CONTINUOUS
10
140.316
20
-129.992
11
140.316
21
-129.992
0
LINE
8
BLACK
6
CONTINUOUS
10
140.316
20
-129.992
11
140.317
21
-129.993
0
LINE
8
BLACK
6
CONTINUOUS
10
140.317
20
-129.993
11
140.333
21
-130.089
0
LINE
8
BLACK
6
CONTINUOUS
10
140.333
20
-130.089
11
140.333
21
-130.089
0
LINE
8
BLACK
6
CONTINUOUS
10
140.333
20
-130.089
11
140.333
21
-130.09
0
LINE
8
BLACK
6
CONTINUOUS
10
140.333
20
-130.09
11
140.333
21
-130.09
0
LINE
8
BLACK
6
CONTINUOUS
10
140.333
20
-130.09
11
140.33
21
-130.188
0
LINE
8
BLACK
6
CONTINUOUS
10
140.33
20
-130.188
11
140.33
21
-130.188
0
LINE
8
BLACK
6
CONTINUOUS
10
140.33
20
-130.188
11
140.33
21
-130.188
0
LINE
8
BLACK
6
CONTINUOUS
10
140.33
20
-130.188
11
140.33
21
-130.189
0
LINE
8
BLACK
6
CONTINUOUS
10
140.33
20
-130.189
11
140.308
21
-130.284
0
LINE
8
BLACK
6
CONTINUOUS
10
140.308
20
-130.284
11
140.308
21
-130.284
0
LINE
8
BLACK
6
CONTINUOUS
10
140.308
20
-130.284
11
140.308
21
-130.284
0
LINE
8
BLACK
6
CONTINUOUS
10
140.308
20
-130.284
11
140.308
21
-130.285
0
LINE
8
BLACK
6
CONTINUOUS
10
140.308
20
-130.285
11
140.268
21
-130.374
0
LINE
8
BLACK
6
CONTINUOUS
10
140.268
20
-130.374
11
140.268
21
-130.374
0
LINE
8
BLACK
6
CONTINUOUS
10
140.268
20
-130.374
11
140.268
21
-130.374
0
LINE
8
BLACK
6
CONTINUOUS
10
140.268
20
-130.374
11
140.268
21
-130.374
0
LINE
8
BLACK
6
CONTINUOUS
10
140.268
20
-130.374
11
140.267
21
-130.377
0
LINE
8
BLACK
6
CONTINUOUS
10
140.267
20
-130.377
11
140.267
21
-130.377
0
LINE
8
BLACK
6
CONTINUOUS
10
140.267
20
-130.377
11
133.766
21
-141.636
0
LINE
8
BLACK
6
CONTINUOUS
10
133.766
20
-141.636
11
133.766
21
-141.636
0
LINE
8
BLACK
6
CONTINUOUS
10
133.766
20
-141.636
11
133.766
21
-141.636
0
LINE
8
BLACK
6
CONTINUOUS
10
133.766
20
-141.636
11
133.709
21
-141.715
0
LINE
8
BLACK
6
CONTINUOUS
10
133.709
20
-141.715
11
133.709
21
-141.715
0
LINE
8
BLACK
6
CONTINUOUS
10
133.709
20
-141.715
11
133.709
21
-141.716
0
LINE
8
BLACK
6
CONTINUOUS
10
133.709
20
-141.716
11
133.709
21
-141.716
0
LINE
8
BLACK
6
CONTINUOUS
10
133.709
20
-141.716
11
133.638
21
-141.783
0
LINE
8
BLACK
6
CONTINUOUS
10
133.638
20
-141.783
11
133.638
21
-141.783
0
LINE
8
BLACK
6
CONTINUOUS
10
133.638
20
-141.783
11
133.637
21
-141.783
0
LINE
8
BLACK
6
CONTINUOUS
10
133.637
20
-141.783
11
133.637
21
-141.784
0
LINE
8
BLACK
6
CONTINUOUS
10
133.637
20
-141.784
11
133.554
21
-141.835
0
LINE
8
BLACK
6
CONTINUOUS
10
133.554
20
-141.835
11
133.554
21
-141.835
0
LINE
8
BLACK
6
CONTINUOUS
10
133.554
20
-141.835
11
133.554
21
-141.835
0
LINE
8
BLACK
6
CONTINUOUS
10
133.554
20
-141.835
11
133.554
21
-141.835
0
LINE
8
BLACK
6
CONTINUOUS
10
133.554
20
-141.835
11
133.554
21
-141.835
0
LINE
8
BLACK
6
CONTINUOUS
10
133.554
20
-141.835
11
133.553
21
-141.836
0
LINE
8
BLACK
6
CONTINUOUS
10
133.553
20
-141.836
11
133.462
21
-141.87
0
LINE
8
BLACK
6
CONTINUOUS
10
133.462
20
-141.87
11
133.462
21
-141.87
0
LINE
8
BLACK
6
CONTINUOUS
10
133.462
20
-141.87
11
133.462
21
-141.87
0
LINE
8
BLACK
6
CONTINUOUS
10
133.462
20
-141.87
11
133.461
21
-141.871
0
LINE
8
BLACK
6
CONTINUOUS
10
133.461
20
-141.871
11
133.365
21
-141.887
0
LINE
8
BLACK
6
CONTINUOUS
10
133.365
20
-141.887
11
133.365
21
-141.887
0
LINE
8
BLACK
6
CONTINUOUS
10
133.365
20
-141.887
11
133.365
21
-141.887
0
LINE
8
BLACK
6
CONTINUOUS
10
128.441
20
-123.147
11
128.351
21
-123.181
0
LINE
8
BLACK
6
CONTINUOUS
10
128.351
20
-123.181
11
128.269
21
-123.233
0
LINE
8
BLACK
6
CONTINUOUS
10
128.269
20
-123.233
11
128.198
21
-123.299
0
LINE
8
BLACK
6
CONTINUOUS
10
128.198
20
-123.299
11
128.142
21
-123.378
0
LINE
8
BLACK
6
CONTINUOUS
10
128.142
20
-123.378
11
121.647
21
-134.628
0
LINE
8
BLACK
6
CONTINUOUS
10
121.647
20
-134.628
11
121.647
21
-134.628
0
LINE
8
BLACK
6
CONTINUOUS
10
121.647
20
-134.628
11
121.645
21
-134.631
0
LINE
8
BLACK
6
CONTINUOUS
10
121.645
20
-134.631
11
121.606
21
-134.719
0
LINE
8
BLACK
6
CONTINUOUS
10
121.606
20
-134.719
11
121.584
21
-134.813
0
LINE
8
BLACK
6
CONTINUOUS
10
121.584
20
-134.813
11
121.582
21
-134.91
0
LINE
8
BLACK
6
CONTINUOUS
10
121.582
20
-134.91
11
121.598
21
-135.005
0
LINE
8
BLACK
6
CONTINUOUS
10
121.598
20
-135.005
11
121.632
21
-135.095
0
LINE
8
BLACK
6
CONTINUOUS
10
121.632
20
-135.095
11
121.683
21
-135.177
0
LINE
8
BLACK
6
CONTINUOUS
10
121.683
20
-135.177
11
121.749
21
-135.248
0
LINE
8
BLACK
6
CONTINUOUS
10
121.749
20
-135.248
11
121.828
21
-135.304
0
LINE
8
BLACK
6
CONTINUOUS
10
121.828
20
-135.304
11
133.082
21
-141.812
0
LINE
8
BLACK
6
CONTINUOUS
10
133.082
20
-141.812
11
133.084
21
-141.813
0
LINE
8
BLACK
6
CONTINUOUS
10
133.084
20
-141.813
11
133.173
21
-141.853
0
LINE
8
BLACK
6
CONTINUOUS
10
133.173
20
-141.853
11
133.267
21
-141.874
0
LINE
8
BLACK
6
CONTINUOUS
10
133.267
20
-141.874
11
133.364
21
-141.877
0
LINE
8
BLACK
6
CONTINUOUS
10
133.364
20
-141.877
11
133.459
21
-141.861
0
LINE
8
BLACK
6
CONTINUOUS
10
133.459
20
-141.861
11
133.549
21
-141.827
0
LINE
8
BLACK
6
CONTINUOUS
10
133.549
20
-141.827
11
133.631
21
-141.775
0
LINE
8
BLACK
6
CONTINUOUS
10
133.631
20
-141.775
11
133.702
21
-141.709
0
LINE
8
BLACK
6
CONTINUOUS
10
133.702
20
-141.709
11
133.758
21
-141.63
0
LINE
8
BLACK
6
CONTINUOUS
10
133.758
20
-141.63
11
140.258
21
-130.372
0
LINE
8
BLACK
6
CONTINUOUS
10
140.258
20
-130.372
11
140.259
21
-130.37
0
LINE
8
BLACK
6
CONTINUOUS
10
140.259
20
-130.37
11
140.299
21
-130.281
0
LINE
8
BLACK
6
CONTINUOUS
10
140.299
20
-130.281
11
140.32
21
-130.187
0
LINE
8
BLACK
6
CONTINUOUS
10
140.32
20
-130.187
11
140.323
21
-130.09
0
LINE
8
BLACK
6
CONTINUOUS
10
140.323
20
-130.09
11
140.307
21
-129.995
0
LINE
8
BLACK
6
CONTINUOUS
10
140.307
20
-129.995
11
140.273
21
-129.905
0
LINE
8
BLACK
6
CONTINUOUS
10
140.273
20
-129.905
11
140.221
21
-129.823
0
LINE
8
BLACK
6
CONTINUOUS
10
140.221
20
-129.823
11
140.155
21
-129.752
0
LINE
8
BLACK
6
CONTINUOUS
10
140.155
20
-129.752
11
140.076
21
-129.696
0
LINE
8
BLACK
6
CONTINUOUS
10
140.076
20
-129.696
11
128.818
21
-123.196
0
LINE
8
BLACK
6
CONTINUOUS
10
128.818
20
-123.196
11
128.816
21
-123.195
0
LINE
8
BLACK
6
CONTINUOUS
10
128.816
20
-123.195
11
128.727
21
-123.155
0
LINE
8
BLACK
6
CONTINUOUS
10
128.727
20
-123.155
11
128.633
21
-123.134
0
LINE
8
BLACK
6
CONTINUOUS
10
128.633
20
-123.134
11
128.536
21
-123.131
0
LINE
8
BLACK
6
CONTINUOUS
10
128.536
20
-123.131
11
128.441
21
-123.147
0
LINE
8
BLACK
6
CONTINUOUS
10
115.839
20
-132.753
11
115.839
21
-132.753
0
LINE
8
BLACK
6
CONTINUOUS
10
115.839
20
-132.753
11
115.839
21
-132.753
0
LINE
8
BLACK
6
CONTINUOUS
10
115.839
20
-132.753
11
115.839
21
-132.753
0
LINE
8
BLACK
6
CONTINUOUS
10
115.839
20
-132.753
11
115.838
21
-132.753
0
LINE
8
BLACK
6
CONTINUOUS
10
115.838
20
-132.753
11
115.838
21
-132.753
0
LINE
8
BLACK
6
CONTINUOUS
10
115.838
20
-132.753
11
115.741
21
-132.738
0
LINE
8
BLACK
6
CONTINUOUS
10
115.741
20
-132.738
11
115.741
21
-132.738
0
LINE
8
BLACK
6
CONTINUOUS
10
115.741
20
-132.738
11
115.741
21
-132.738
0
LINE
8
BLACK
6
CONTINUOUS
10
115.741
20
-132.738
11
115.741
21
-132.738
0
LINE
8
BLACK
6
CONTINUOUS
10
115.741
20
-132.738
11
115.738
21
-132.737
0
LINE
8
BLACK
6
CONTINUOUS
10
115.738
20
-132.737
11
115.738
21
-132.737
0
LINE
8
BLACK
6
CONTINUOUS
10
115.738
20
-132.737
11
115.738
21
-132.737
0
LINE
8
BLACK
6
CONTINUOUS
10
115.738
20
-132.737
11
115.738
21
-132.737
0
LINE
8
BLACK
6
CONTINUOUS
10
115.738
20
-132.737
11
115.737
21
-132.737
0
LINE
8
BLACK
6
CONTINUOUS
10
115.737
20
-132.737
11
115.737
21
-132.737
0
LINE
8
BLACK
6
CONTINUOUS
10
115.737
20
-132.737
11
103.183
21
-129.363
0
LINE
8
BLACK
6
CONTINUOUS
10
103.183
20
-129.363
11
103.182
21
-129.363
0
LINE
8
BLACK
6
CONTINUOUS
10
103.182
20
-129.363
11
103.182
21
-129.363
0
LINE
8
BLACK
6
CONTINUOUS
10
103.182
20
-129.363
11
103.091
21
-129.329
0
LINE
8
BLACK
6
CONTINUOUS
10
103.091
20
-129.329
11
103.091
21
-129.329
0
LINE
8
BLACK
6
CONTINUOUS
10
103.091
20
-129.329
11
103.091
21
-129.329
0
LINE
8
BLACK
6
CONTINUOUS
10
103.091
20
-129.329
11
103.091
21
-129.329
0
LINE
8
BLACK
6
CONTINUOUS
10
103.091
20
-129.329
11
103.091
21
-129.329
0
LINE
8
BLACK
6
CONTINUOUS
10
103.091
20
-129.329
11
103.09
21
-129.328
0
LINE
8
BLACK
6
CONTINUOUS
10
103.09
20
-129.328
11
103.007
21
-129.277
0
LINE
8
BLACK
6
CONTINUOUS
10
103.007
20
-129.277
11
103.007
21
-129.277
0
LINE
8
BLACK
6
CONTINUOUS
10
103.007
20
-129.277
11
103.007
21
-129.277
0
LINE
8
BLACK
6
CONTINUOUS
10
103.007
20
-129.277
11
103.007
21
-129.277
0
LINE
8
BLACK
6
CONTINUOUS
10
103.007
20
-129.277
11
103.007
21
-129.277
0
LINE
8
BLACK
6
CONTINUOUS
10
103.007
20
-129.277
11
103.006
21
-129.276
0
LINE
8
BLACK
6
CONTINUOUS
10
103.006
20
-129.276
11
102.935
21
-129.21
0
LINE
8
BLACK
6
CONTINUOUS
10
102.935
20
-129.21
11
102.935
21
-129.21
0
LINE
8
BLACK
6
CONTINUOUS
10
102.935
20
-129.21
11
102.935
21
-129.209
0
LINE
8
BLACK
6
CONTINUOUS
10
102.935
20
-129.209
11
102.934
21
-129.209
0
LINE
8
BLACK
6
CONTINUOUS
10
102.934
20
-129.209
11
102.877
21
-129.13
0
LINE
8
BLACK
6
CONTINUOUS
10
102.877
20
-129.13
11
102.877
21
-129.13
0
LINE
8
BLACK
6
CONTINUOUS
10
102.877
20
-129.13
11
102.877
21
-129.129
0
LINE
8
BLACK
6
CONTINUOUS
10
102.877
20
-129.129
11
102.877
21
-129.129
0
LINE
8
BLACK
6
CONTINUOUS
10
102.877
20
-129.129
11
102.836
21
-129.04
0
LINE
8
BLACK
6
CONTINUOUS
10
102.836
20
-129.04
11
102.836
21
-129.04
0
LINE
8
BLACK
6
CONTINUOUS
10
102.836
20
-129.04
11
102.836
21
-129.04
0
LINE
8
BLACK
6
CONTINUOUS
10
102.836
20
-129.04
11
102.836
21
-129.039
0
LINE
8
BLACK
6
CONTINUOUS
10
102.836
20
-129.039
11
102.813
21
-128.944
0
LINE
8
BLACK
6
CONTINUOUS
10
102.813
20
-128.944
11
102.813
21
-128.944
0
LINE
8
BLACK
6
CONTINUOUS
10
102.813
20
-128.944
11
102.813
21
-128.944
0
LINE
8
BLACK
6
CONTINUOUS
10
102.813
20
-128.944
11
102.813
21
-128.943
0
LINE
8
BLACK
6
CONTINUOUS
10
102.813
20
-128.943
11
102.809
21
-128.846
0
LINE
8
BLACK
6
CONTINUOUS
10
102.809
20
-128.846
11
102.809
21
-128.846
0
LINE
8
BLACK
6
CONTINUOUS
10
102.809
20
-128.846
11
102.809
21
-128.846
0
LINE
8
BLACK
6
CONTINUOUS
10
102.809
20
-128.846
11
102.809
21
-128.846
0
LINE
8
BLACK
6
CONTINUOUS
10
102.809
20
-128.846
11
102.809
21
-128.845
0
LINE
8
BLACK
6
CONTINUOUS
10
102.809
20
-128.845
11
102.809
21
-128.845
0
LINE
8
BLACK
6
CONTINUOUS
10
102.809
20
-128.845
11
102.825
21
-128.749
0
LINE
8
BLACK
6
CONTINUOUS
10
102.825
20
-128.749
11
102.825
21
-128.749
0
LINE
8
BLACK
6
CONTINUOUS
10
102.825
20
-128.749
11
102.825
21
-128.748
0
LINE
8
BLACK
6
CONTINUOUS
10
102.825
20
-128.748
11
102.825
21
-128.748
0
LINE
8
BLACK
6
CONTINUOUS
10
102.825
20
-128.748
11
102.826
21
-128.745
0
LINE
8
BLACK
6
CONTINUOUS
10
102.826
20
-128.745
11
102.826
21
-128.745
0
LINE
8
BLACK
6
CONTINUOUS
10
102.826
20
-128.745
11
102.826
21
-128.745
0
LINE
8
BLACK
6
CONTINUOUS
10
102.826
20
-128.745
11
106.188
21
-116.196
0
LINE
8
BLACK
6
CONTINUOUS
10
106.188
20
-116.196
11
106.188
21
-116.196
0
LINE
8
BLACK
6
CONTINUOUS
10
106.188
20
-116.196
11
106.222
21
-116.105
0
LINE
8
BLACK
6
CONTINUOUS
10
106.222
20
-116.105
11
106.223
21
-116.105
0
LINE
8
BLACK
6
CONTINUOUS
10
106.223
20
-116.105
11
106.223
21
-116.104
0
LINE
8
BLACK
6
CONTINUOUS
10
106.223
20
-116.104
11
106.223
21
-116.104
0
LINE
8
BLACK
6
CONTINUOUS
10
106.223
20
-116.104
11
106.274
21
-116.021
0
LINE
8
BLACK
6
CONTINUOUS
10
106.274
20
-116.021
11
106.274
21
-116.021
0
LINE
8
BLACK
6
CONTINUOUS
10
106.274
20
-116.021
11
106.275
21
-116.02
0
LINE
8
BLACK
6
CONTINUOUS
10
106.275
20
-116.02
11
106.275
21
-116.02
0
LINE
8
BLACK
6
CONTINUOUS
10
106.275
20
-116.02
11
106.341
21
-115.949
0
LINE
8
BLACK
6
CONTINUOUS
10
106.341
20
-115.949
11
106.342
21
-115.949
0
LINE
8
BLACK
6
CONTINUOUS
10
106.342
20
-115.949
11
106.342
21
-115.948
0
LINE
8
BLACK
6
CONTINUOUS
10
106.342
20
-115.948
11
106.342
21
-115.948
0
LINE
8
BLACK
6
CONTINUOUS
10
106.342
20
-115.948
11
106.421
21
-115.891
0
LINE
8
BLACK
6
CONTINUOUS
10
106.421
20
-115.891
11
106.421
21
-115.891
0
LINE
8
BLACK
6
CONTINUOUS
10
106.421
20
-115.891
11
106.422
21
-115.891
0
LINE
8
BLACK
6
CONTINUOUS
10
106.422
20
-115.891
11
106.422
21
-115.89
0
LINE
8
BLACK
6
CONTINUOUS
10
106.422
20
-115.89
11
106.511
21
-115.85
0
LINE
8
BLACK
6
CONTINUOUS
10
106.511
20
-115.85
11
106.511
21
-115.85
0
LINE
8
BLACK
6
CONTINUOUS
10
106.511
20
-115.85
11
106.511
21
-115.85
0
LINE
8
BLACK
6
CONTINUOUS
10
106.511
20
-115.85
11
106.512
21
-115.85
0
LINE
8
BLACK
6
CONTINUOUS
10
106.512
20
-115.85
11
106.607
21
-115.827
0
LINE
8
BLACK
6
CONTINUOUS
10
106.607
20
-115.827
11
106.607
21
-115.827
0
LINE
8
BLACK
6
CONTINUOUS
10
106.607
20
-115.827
11
106.607
21
-115.827
0
LINE
8
BLACK
6
CONTINUOUS
10
106.607
20
-115.827
11
106.607
21
-115.827
0
LINE
8
BLACK
6
CONTINUOUS
10
106.607
20
-115.827
11
106.607
21
-115.827
0
LINE
8
BLACK
6
CONTINUOUS
10
106.607
20
-115.827
11
106.608
21
-115.827
0
LINE
8
BLACK
6
CONTINUOUS
10
106.608
20
-115.827
11
106.608
21
-115.827
0
LINE
8
BLACK
6
CONTINUOUS
10
106.608
20
-115.827
11
106.608
21
-115.827
0
LINE
8
BLACK
6
CONTINUOUS
10
106.608
20
-115.827
11
106.705
21
-115.823
0
LINE
8
BLACK
6
CONTINUOUS
10
106.705
20
-115.823
11
106.705
21
-115.823
0
LINE
8
BLACK
6
CONTINUOUS
10
106.705
20
-115.823
11
106.705
21
-115.823
0
LINE
8
BLACK
6
CONTINUOUS
10
106.705
20
-115.823
11
106.705
21
-115.823
0
LINE
8
BLACK
6
CONTINUOUS
10
106.705
20
-115.823
11
106.706
21
-115.823
0
LINE
8
BLACK
6
CONTINUOUS
10
106.706
20
-115.823
11
106.706
21
-115.823
0
LINE
8
BLACK
6
CONTINUOUS
10
106.706
20
-115.823
11
106.803
21
-115.838
0
LINE
8
BLACK
6
CONTINUOUS
10
106.803
20
-115.838
11
106.803
21
-115.838
0
LINE
8
BLACK
6
CONTINUOUS
10
106.803
20
-115.838
11
106.803
21
-115.838
0
LINE
8
BLACK
6
CONTINUOUS
10
106.803
20
-115.838
11
106.803
21
-115.838
0
LINE
8
BLACK
6
CONTINUOUS
10
106.803
20
-115.838
11
106.806
21
-115.839
0
LINE
8
BLACK
6
CONTINUOUS
10
106.806
20
-115.839
11
106.806
21
-115.839
0
LINE
8
BLACK
6
CONTINUOUS
10
106.806
20
-115.839
11
106.806
21
-115.839
0
LINE
8
BLACK
6
CONTINUOUS
10
106.806
20
-115.839
11
106.806
21
-115.839
0
LINE
8
BLACK
6
CONTINUOUS
10
106.806
20
-115.839
11
106.807
21
-115.839
0
LINE
8
BLACK
6
CONTINUOUS
10
106.807
20
-115.839
11
106.807
21
-115.839
0
LINE
8
BLACK
6
CONTINUOUS
10
106.807
20
-115.839
11
119.364
21
-119.204
0
LINE
8
BLACK
6
CONTINUOUS
10
119.364
20
-119.204
11
119.364
21
-119.204
0
LINE
8
BLACK
6
CONTINUOUS
10
119.364
20
-119.204
11
119.364
21
-119.204
0
LINE
8
BLACK
6
CONTINUOUS
10
119.364
20
-119.204
11
119.455
21
-119.238
0
LINE
8
BLACK
6
CONTINUOUS
10
119.455
20
-119.238
11
119.455
21
-119.239
0
LINE
8
BLACK
6
CONTINUOUS
10
119.455
20
-119.239
11
119.456
21
-119.239
0
LINE
8
BLACK
6
CONTINUOUS
10
119.456
20
-119.239
11
119.456
21
-119.239
0
LINE
8
BLACK
6
CONTINUOUS
10
119.456
20
-119.239
11
119.539
21
-119.29
0
LINE
8
BLACK
6
CONTINUOUS
10
119.539
20
-119.29
11
119.539
21
-119.29
0
LINE
8
BLACK
6
CONTINUOUS
10
119.539
20
-119.29
11
119.54
21
-119.291
0
LINE
8
BLACK
6
CONTINUOUS
10
119.54
20
-119.291
11
119.54
21
-119.291
0
LINE
8
BLACK
6
CONTINUOUS
10
119.54
20
-119.291
11
119.611
21
-119.357
0
LINE
8
BLACK
6
CONTINUOUS
10
119.611
20
-119.357
11
119.611
21
-119.358
0
LINE
8
BLACK
6
CONTINUOUS
10
119.611
20
-119.358
11
119.612
21
-119.358
0
LINE
8
BLACK
6
CONTINUOUS
10
119.612
20
-119.358
11
119.612
21
-119.358
0
LINE
8
BLACK
6
CONTINUOUS
10
119.612
20
-119.358
11
119.669
21
-119.437
0
LINE
8
BLACK
6
CONTINUOUS
10
119.669
20
-119.437
11
119.669
21
-119.437
0
LINE
8
BLACK
6
CONTINUOUS
10
119.669
20
-119.437
11
119.669
21
-119.438
0
LINE
8
BLACK
6
CONTINUOUS
10
119.669
20
-119.438
11
119.67
21
-119.438
0
LINE
8
BLACK
6
CONTINUOUS
10
119.67
20
-119.438
11
119.71
21
-119.527
0
LINE
8
BLACK
6
CONTINUOUS
10
119.71
20
-119.527
11
119.71
21
-119.527
0
LINE
8
BLACK
6
CONTINUOUS
10
119.71
20
-119.527
11
119.71
21
-119.527
0
LINE
8
BLACK
6
CONTINUOUS
10
119.71
20
-119.527
11
119.71
21
-119.528
0
LINE
8
BLACK
6
CONTINUOUS
10
119.71
20
-119.528
11
119.733
21
-119.623
0
LINE
8
BLACK
6
CONTINUOUS
10
119.733
20
-119.623
11
119.733
21
-119.623
0
LINE
8
BLACK
6
CONTINUOUS
10
119.733
20
-119.623
11
119.733
21
-119.623
0
LINE
8
BLACK
6
CONTINUOUS
10
119.733
20
-119.623
11
119.733
21
-119.624
0
LINE
8
BLACK
6
CONTINUOUS
10
119.733
20
-119.624
11
119.737
21
-119.721
0
LINE
8
BLACK
6
CONTINUOUS
10
119.737
20
-119.721
11
119.737
21
-119.721
0
LINE
8
BLACK
6
CONTINUOUS
10
119.737
20
-119.721
11
119.737
21
-119.721
0
LINE
8
BLACK
6
CONTINUOUS
10
119.737
20
-119.721
11
119.737
21
-119.721
0
LINE
8
BLACK
6
CONTINUOUS
10
119.737
20
-119.721
11
119.737
21
-119.722
0
LINE
8
BLACK
6
CONTINUOUS
10
119.737
20
-119.722
11
119.737
21
-119.722
0
LINE
8
BLACK
6
CONTINUOUS
10
119.737
20
-119.722
11
119.722
21
-119.819
0
LINE
8
BLACK
6
CONTINUOUS
10
119.722
20
-119.819
11
119.722
21
-119.819
0
LINE
8
BLACK
6
CONTINUOUS
10
119.722
20
-119.819
11
119.722
21
-119.819
0
LINE
8
BLACK
6
CONTINUOUS
10
119.722
20
-119.819
11
119.722
21
-119.819
0
LINE
8
BLACK
6
CONTINUOUS
10
119.722
20
-119.819
11
119.721
21
-119.822
0
LINE
8
BLACK
6
CONTINUOUS
10
119.721
20
-119.822
11
119.721
21
-119.822
0
LINE
8
BLACK
6
CONTINUOUS
10
119.721
20
-119.822
11
116.356
21
-132.38
0
LINE
8
BLACK
6
CONTINUOUS
10
116.356
20
-132.38
11
116.356
21
-132.38
0
LINE
8
BLACK
6
CONTINUOUS
10
116.356
20
-132.38
11
116.356
21
-132.38
0
LINE
8
BLACK
6
CONTINUOUS
10
116.356
20
-132.38
11
116.322
21
-132.471
0
LINE
8
BLACK
6
CONTINUOUS
10
116.322
20
-132.471
11
116.321
21
-132.471
0
LINE
8
BLACK
6
CONTINUOUS
10
116.321
20
-132.471
11
116.321
21
-132.472
0
LINE
8
BLACK
6
CONTINUOUS
10
116.321
20
-132.472
11
116.321
21
-132.472
0
LINE
8
BLACK
6
CONTINUOUS
10
116.321
20
-132.472
11
116.27
21
-132.555
0
LINE
8
BLACK
6
CONTINUOUS
10
116.27
20
-132.555
11
116.27
21
-132.555
0
LINE
8
BLACK
6
CONTINUOUS
10
116.27
20
-132.555
11
116.27
21
-132.555
0
LINE
8
BLACK
6
CONTINUOUS
10
116.27
20
-132.555
11
116.27
21
-132.555
0
LINE
8
BLACK
6
CONTINUOUS
10
116.27
20
-132.555
11
116.269
21
-132.556
0
LINE
8
BLACK
6
CONTINUOUS
10
116.269
20
-132.556
11
116.269
21
-132.556
0
LINE
8
BLACK
6
CONTINUOUS
10
116.269
20
-132.556
11
116.203
21
-132.627
0
LINE
8
BLACK
6
CONTINUOUS
10
116.203
20
-132.627
11
116.202
21
-132.627
0
LINE
8
BLACK
6
CONTINUOUS
10
116.202
20
-132.627
11
116.202
21
-132.628
0
LINE
8
BLACK
6
CONTINUOUS
10
116.202
20
-132.628
11
116.202
21
-132.628
0
LINE
8
BLACK
6
CONTINUOUS
10
116.202
20
-132.628
11
116.123
21
-132.685
0
LINE
8
BLACK
6
CONTINUOUS
10
116.123
20
-132.685
11
116.123
21
-132.685
0
LINE
8
BLACK
6
CONTINUOUS
10
116.123
20
-132.685
11
116.122
21
-132.685
0
LINE
8
BLACK
6
CONTINUOUS
10
116.122
20
-132.685
11
116.122
21
-132.686
0
LINE
8
BLACK
6
CONTINUOUS
10
116.122
20
-132.686
11
116.033
21
-132.726
0
LINE
8
BLACK
6
CONTINUOUS
10
116.033
20
-132.726
11
116.033
21
-132.726
0
LINE
8
BLACK
6
CONTINUOUS
10
116.033
20
-132.726
11
116.033
21
-132.726
0
LINE
8
BLACK
6
CONTINUOUS
10
116.033
20
-132.726
11
116.032
21
-132.726
0
LINE
8
BLACK
6
CONTINUOUS
10
116.032
20
-132.726
11
115.937
21
-132.749
0
LINE
8
BLACK
6
CONTINUOUS
10
115.937
20
-132.749
11
115.937
21
-132.749
0
LINE
8
BLACK
6
CONTINUOUS
10
115.937
20
-132.749
11
115.937
21
-132.749
0
LINE
8
BLACK
6
CONTINUOUS
10
115.937
20
-132.749
11
115.937
21
-132.749
0
LINE
8
BLACK
6
CONTINUOUS
10
115.937
20
-132.749
11
115.937
21
-132.749
0
LINE
8
BLACK
6
CONTINUOUS
10
115.937
20
-132.749
11
115.936
21
-132.749
0
LINE
8
BLACK
6
CONTINUOUS
10
115.936
20
-132.749
11
115.936
21
-132.749
0
LINE
8
BLACK
6
CONTINUOUS
10
115.936
20
-132.749
11
115.936
21
-132.749
0
LINE
8
BLACK
6
CONTINUOUS
10
115.936
20
-132.749
11
115.839
21
-132.753
0
LINE
8
BLACK
6
CONTINUOUS
10
106.609
20
-115.837
11
106.515
21
-115.859
0
LINE
8
BLACK
6
CONTINUOUS
10
106.515
20
-115.859
11
106.427
21
-115.899
0
LINE
8
BLACK
6
CONTINUOUS
10
106.427
20
-115.899
11
106.348
21
-115.956
0
LINE
8
BLACK
6
CONTINUOUS
10
106.348
20
-115.956
11
106.283
21
-116.027
0
LINE
8
BLACK
6
CONTINUOUS
10
106.283
20
-116.027
11
106.232
21
-116.109
0
LINE
8
BLACK
6
CONTINUOUS
10
106.232
20
-116.109
11
106.198
21
-116.199
0
LINE
8
BLACK
6
CONTINUOUS
10
106.198
20
-116.199
11
102.835
21
-128.747
0
LINE
8
BLACK
6
CONTINUOUS
10
102.835
20
-128.747
11
102.835
21
-128.747
0
LINE
8
BLACK
6
CONTINUOUS
10
102.835
20
-128.747
11
102.835
21
-128.75
0
LINE
8
BLACK
6
CONTINUOUS
10
102.835
20
-128.75
11
102.819
21
-128.846
0
LINE
8
BLACK
6
CONTINUOUS
10
102.819
20
-128.846
11
102.823
21
-128.943
0
LINE
8
BLACK
6
CONTINUOUS
10
102.823
20
-128.943
11
102.846
21
-129.037
0
LINE
8
BLACK
6
CONTINUOUS
10
102.846
20
-129.037
11
102.886
21
-129.124
0
LINE
8
BLACK
6
CONTINUOUS
10
102.886
20
-129.124
11
102.942
21
-129.203
0
LINE
8
BLACK
6
CONTINUOUS
10
102.942
20
-129.203
11
103.013
21
-129.269
0
LINE
8
BLACK
6
CONTINUOUS
10
103.013
20
-129.269
11
103.095
21
-129.32
0
LINE
8
BLACK
6
CONTINUOUS
10
103.095
20
-129.32
11
103.186
21
-129.354
0
LINE
8
BLACK
6
CONTINUOUS
10
103.186
20
-129.354
11
115.74
21
-132.727
0
LINE
8
BLACK
6
CONTINUOUS
10
115.74
20
-132.727
11
115.743
21
-132.728
0
LINE
8
BLACK
6
CONTINUOUS
10
115.743
20
-132.728
11
115.839
21
-132.743
0
LINE
8
BLACK
6
CONTINUOUS
10
115.839
20
-132.743
11
115.935
21
-132.739
0
LINE
8
BLACK
6
CONTINUOUS
10
115.935
20
-132.739
11
116.029
21
-132.717
0
LINE
8
BLACK
6
CONTINUOUS
10
116.029
20
-132.717
11
116.117
21
-132.677
0
LINE
8
BLACK
6
CONTINUOUS
10
116.117
20
-132.677
11
116.196
21
-132.62
0
LINE
8
BLACK
6
CONTINUOUS
10
116.196
20
-132.62
11
116.261
21
-132.549
0
LINE
8
BLACK
6
CONTINUOUS
10
116.261
20
-132.549
11
116.312
21
-132.467
0
LINE
8
BLACK
6
CONTINUOUS
10
116.312
20
-132.467
11
116.346
21
-132.377
0
LINE
8
BLACK
6
CONTINUOUS
10
116.346
20
-132.377
11
119.711
21
-119.82
0
LINE
8
BLACK
6
CONTINUOUS
10
119.711
20
-119.82
11
119.712
21
-119.817
0
LINE
8
BLACK
6
CONTINUOUS
10
119.712
20
-119.817
11
119.727
21
-119.721
0
LINE
8
BLACK
6
CONTINUOUS
10
119.727
20
-119.721
11
119.723
21
-119.625
0
LINE
8
BLACK
6
CONTINUOUS
10
119.723
20
-119.625
11
119.701
21
-119.531
0
LINE
8
BLACK
6
CONTINUOUS
10
119.701
20
-119.531
11
119.661
21
-119.443
0
LINE
8
BLACK
6
CONTINUOUS
10
119.661
20
-119.443
11
119.604
21
-119.364
0
LINE
8
BLACK
6
CONTINUOUS
10
119.604
20
-119.364
11
119.533
21
-119.299
0
LINE
8
BLACK
6
CONTINUOUS
10
119.533
20
-119.299
11
119.451
21
-119.248
0
LINE
8
BLACK
6
CONTINUOUS
10
119.451
20
-119.248
11
119.361
21
-119.214
0
LINE
8
BLACK
6
CONTINUOUS
10
119.361
20
-119.214
11
106.804
21
-115.849
0
LINE
8
BLACK
6
CONTINUOUS
10
106.804
20
-115.849
11
106.804
21
-115.849
0
LINE
8
BLACK
6
CONTINUOUS
10
106.804
20
-115.849
11
106.801
21
-115.848
0
LINE
8
BLACK
6
CONTINUOUS
10
106.801
20
-115.848
11
106.705
21
-115.833
0
LINE
8
BLACK
6
CONTINUOUS
10
106.705
20
-115.833
11
106.609
21
-115.837
0
LINE
8
BLACK
6
CONTINUOUS
10
51.602
20
-121.995
11
51.6015
21
-121.995
0
LINE
8
BLACK
6
CONTINUOUS
10
51.6015
20
-121.995
11
51.6011
21
-121.995
0
LINE
8
BLACK
6
CONTINUOUS
10
51.6011
20
-121.995
11
51.504
21
-122.005
0
LINE
8
BLACK
6
CONTINUOUS
10
51.504
20
-122.005
11
51.5039
21
-122.005
0
LINE
8
BLACK
6
CONTINUOUS
10
51.5039
20
-122.005
11
51.5037
21
-122.005
0
LINE
8
BLACK
6
CONTINUOUS
10
51.5037
20
-122.005
11
51.5035
21
-122.005
0
LINE
8
BLACK
6
CONTINUOUS
10
51.5035
20
-122.005
11
51.5002
21
-122.005
0
LINE
8
BLACK
6
CONTINUOUS
10
51.5002
20
-122.005
11
51.5002
21
-122.005
0
LINE
8
BLACK
6
CONTINUOUS
10
51.5002
20
-122.005
11
51.4999
21
-122.005
0
LINE
8
BLACK
6
CONTINUOUS
10
51.4999
20
-122.005
11
38.4998
21
-121.996
0
LINE
8
BLACK
6
CONTINUOUS
10
38.4998
20
-121.996
11
38.4995
21
-121.996
0
LINE
8
BLACK
6
CONTINUOUS
10
38.4995
20
-121.996
11
38.4995
21
-121.996
0
LINE
8
BLACK
6
CONTINUOUS
10
38.4995
20
-121.996
11
38.4024
21
-121.986
0
LINE
8
BLACK
6
CONTINUOUS
10
38.4024
20
-121.986
11
38.4023
21
-121.986
0
LINE
8
BLACK
6
CONTINUOUS
10
38.4023
20
-121.986
11
38.4018
21
-121.986
0
LINE
8
BLACK
6
CONTINUOUS
10
38.4018
20
-121.986
11
38.4014
21
-121.986
0
LINE
8
BLACK
6
CONTINUOUS
10
38.4014
20
-121.986
11
38.4014
21
-121.986
0
LINE
8
BLACK
6
CONTINUOUS
10
38.4014
20
-121.986
11
38.4014
21
-121.986
0
LINE
8
BLACK
6
CONTINUOUS
10
38.4014
20
-121.986
11
38.4014
21
-121.986
0
LINE
8
BLACK
6
CONTINUOUS
10
38.4014
20
-121.986
11
38.308
21
-121.958
0
LINE
8
BLACK
6
CONTINUOUS
10
38.308
20
-121.958
11
38.308
21
-121.958
0
LINE
8
BLACK
6
CONTINUOUS
10
38.308
20
-121.958
11
38.308
21
-121.958
0
LINE
8
BLACK
6
CONTINUOUS
10
38.308
20
-121.958
11
38.308
21
-121.958
0
LINE
8
BLACK
6
CONTINUOUS
10
38.308
20
-121.958
11
38.3075
21
-121.958
0
LINE
8
BLACK
6
CONTINUOUS
10
38.3075
20
-121.958
11
38.3071
21
-121.958
0
LINE
8
BLACK
6
CONTINUOUS
10
38.3071
20
-121.958
11
38.3071
21
-121.958
0
LINE
8
BLACK
6
CONTINUOUS
10
38.3071
20
-121.958
11
38.3071
21
-121.958
0
LINE
8
BLACK
6
CONTINUOUS
10
38.3071
20
-121.958
11
38.3071
21
-121.958
0
LINE
8
BLACK
6
CONTINUOUS
10
38.3071
20
-121.958
11
38.221
21
-121.912
0
LINE
8
BLACK
6
CONTINUOUS
10
38.221
20
-121.912
11
38.221
21
-121.912
0
LINE
8
BLACK
6
CONTINUOUS
10
38.221
20
-121.912
11
38.2209
21
-121.912
0
LINE
8
BLACK
6
CONTINUOUS
10
38.2209
20
-121.912
11
38.2209
21
-121.912
0
LINE
8
BLACK
6
CONTINUOUS
10
38.2209
20
-121.912
11
38.2205
21
-121.911
0
LINE
8
BLACK
6
CONTINUOUS
10
38.2205
20
-121.911
11
38.2201
21
-121.911
0
LINE
8
BLACK
6
CONTINUOUS
10
38.2201
20
-121.911
11
38.1445
21
-121.85
0
LINE
8
BLACK
6
CONTINUOUS
10
38.1445
20
-121.85
11
38.1445
21
-121.85
0
LINE
8
BLACK
6
CONTINUOUS
10
38.1445
20
-121.85
11
38.1441
21
-121.849
0
LINE
8
BLACK
6
CONTINUOUS
10
38.1441
20
-121.849
11
38.1438
21
-121.849
0
LINE
8
BLACK
6
CONTINUOUS
10
38.1438
20
-121.849
11
38.0816
21
-121.774
0
LINE
8
BLACK
6
CONTINUOUS
10
38.0816
20
-121.774
11
38.0816
21
-121.774
0
LINE
8
BLACK
6
CONTINUOUS
10
38.0816
20
-121.774
11
38.0813
21
-121.773
0
LINE
8
BLACK
6
CONTINUOUS
10
38.0813
20
-121.773
11
38.0811
21
-121.773
0
LINE
8
BLACK
6
CONTINUOUS
10
38.0811
20
-121.773
11
38.0347
21
-121.687
0
LINE
8
BLACK
6
CONTINUOUS
10
38.0347
20
-121.687
11
38.0346
21
-121.687
0
LINE
8
BLACK
6
CONTINUOUS
10
38.0346
20
-121.687
11
38.0344
21
-121.687
0
LINE
8
BLACK
6
CONTINUOUS
10
38.0344
20
-121.687
11
38.0343
21
-121.686
0
LINE
8
BLACK
6
CONTINUOUS
10
38.0343
20
-121.686
11
38.0343
21
-121.686
0
LINE
8
BLACK
6
CONTINUOUS
10
38.0343
20
-121.686
11
38.0343
21
-121.686
0
LINE
8
BLACK
6
CONTINUOUS
10
38.0343
20
-121.686
11
38.0343
21
-121.686
0
LINE
8
BLACK
6
CONTINUOUS
10
38.0343
20
-121.686
11
38.0054
21
-121.593
0
LINE
8
BLACK
6
CONTINUOUS
10
38.0054
20
-121.593
11
38.0054
21
-121.593
0
LINE
8
BLACK
6
CONTINUOUS
10
38.0054
20
-121.593
11
38.0053
21
-121.592
0
LINE
8
BLACK
6
CONTINUOUS
10
38.0053
20
-121.592
11
38.0052
21
-121.592
0
LINE
8
BLACK
6
CONTINUOUS
10
38.0052
20
-121.592
11
37.995
21
-121.495
0
LINE
8
BLACK
6
CONTINUOUS
10
37.995
20
-121.495
11
37.995
21
-121.495
0
LINE
8
BLACK
6
CONTINUOUS
10
37.995
20
-121.495
11
37.995
21
-121.495
0
LINE
8
BLACK
6
CONTINUOUS
10
37.995
20
-121.495
11
37.995
21
-121.494
0
LINE
8
BLACK
6
CONTINUOUS
10
37.995
20
-121.494
11
37.995
21
-121.491
0
LINE
8
BLACK
6
CONTINUOUS
10
37.995
20
-121.491
11
37.995
21
-121.491
0
LINE
8
BLACK
6
CONTINUOUS
10
37.995
20
-121.491
11
37.995
21
-121.491
0
LINE
8
BLACK
6
CONTINUOUS
10
37.995
20
-121.491
11
37.995
21
-108.5
0
LINE
8
BLACK
6
CONTINUOUS
10
37.995
20
-108.5
11
37.995
21
-108.5
0
LINE
8
BLACK
6
CONTINUOUS
10
37.995
20
-108.5
11
38.0045
21
-108.402
0
LINE
8
BLACK
6
CONTINUOUS
10
38.0045
20
-108.402
11
38.0046
21
-108.402
0
LINE
8
BLACK
6
CONTINUOUS
10
38.0046
20
-108.402
11
38.0047
21
-108.402
0
LINE
8
BLACK
6
CONTINUOUS
10
38.0047
20
-108.402
11
38.0047
21
-108.401
0
LINE
8
BLACK
6
CONTINUOUS
10
38.0047
20
-108.401
11
38.0329
21
-108.308
0
LINE
8
BLACK
6
CONTINUOUS
10
38.0329
20
-108.308
11
38.0329
21
-108.308
0
LINE
8
BLACK
6
CONTINUOUS
10
38.0329
20
-108.308
11
38.0329
21
-108.308
0
LINE
8
BLACK
6
CONTINUOUS
10
38.0329
20
-108.308
11
38.033
21
-108.308
0
LINE
8
BLACK
6
CONTINUOUS
10
38.033
20
-108.308
11
38.0331
21
-108.308
0
LINE
8
BLACK
6
CONTINUOUS
10
38.0331
20
-108.308
11
38.0333
21
-108.307
0
LINE
8
BLACK
6
CONTINUOUS
10
38.0333
20
-108.307
11
38.0791
21
-108.221
0
LINE
8
BLACK
6
CONTINUOUS
10
38.0791
20
-108.221
11
38.0791
21
-108.221
0
LINE
8
BLACK
6
CONTINUOUS
10
38.0791
20
-108.221
11
38.0791
21
-108.221
0
LINE
8
BLACK
6
CONTINUOUS
10
38.0791
20
-108.221
11
38.0792
21
-108.221
0
LINE
8
BLACK
6
CONTINUOUS
10
38.0792
20
-108.221
11
38.0794
21
-108.221
0
LINE
8
BLACK
6
CONTINUOUS
10
38.0794
20
-108.221
11
38.0797
21
-108.22
0
LINE
8
BLACK
6
CONTINUOUS
10
38.0797
20
-108.22
11
38.1413
21
-108.145
0
LINE
8
BLACK
6
CONTINUOUS
10
38.1413
20
-108.145
11
38.1414
21
-108.144
0
LINE
8
BLACK
6
CONTINUOUS
10
38.1414
20
-108.144
11
38.1417
21
-108.144
0
LINE
8
BLACK
6
CONTINUOUS
10
38.1417
20
-108.144
11
38.142
21
-108.144
0
LINE
8
BLACK
6
CONTINUOUS
10
38.142
20
-108.144
11
38.2172
21
-108.082
0
LINE
8
BLACK
6
CONTINUOUS
10
38.2172
20
-108.082
11
38.2173
21
-108.082
0
LINE
8
BLACK
6
CONTINUOUS
10
38.2173
20
-108.082
11
38.2176
21
-108.081
0
LINE
8
BLACK
6
CONTINUOUS
10
38.2176
20
-108.081
11
38.218
21
-108.081
0
LINE
8
BLACK
6
CONTINUOUS
10
38.218
20
-108.081
11
38.3039
21
-108.035
0
LINE
8
BLACK
6
CONTINUOUS
10
38.3039
20
-108.035
11
38.3039
21
-108.035
0
LINE
8
BLACK
6
CONTINUOUS
10
38.3039
20
-108.035
11
38.3044
21
-108.034
0
LINE
8
BLACK
6
CONTINUOUS
10
38.3044
20
-108.034
11
38.3048
21
-108.034
0
LINE
8
BLACK
6
CONTINUOUS
10
38.3048
20
-108.034
11
38.398
21
-108.005
0
LINE
8
BLACK
6
CONTINUOUS
10
38.398
20
-108.005
11
38.398
21
-108.005
0
LINE
8
BLACK
6
CONTINUOUS
10
38.398
20
-108.005
11
38.398
21
-108.005
0
LINE
8
BLACK
6
CONTINUOUS
10
38.398
20
-108.005
11
38.398
21
-108.005
0
LINE
8
BLACK
6
CONTINUOUS
10
38.398
20
-108.005
11
38.3985
21
-108.005
0
LINE
8
BLACK
6
CONTINUOUS
10
38.3985
20
-108.005
11
38.3989
21
-108.005
0
LINE
8
BLACK
6
CONTINUOUS
10
38.3989
20
-108.005
11
38.496
21
-107.995
0
LINE
8
BLACK
6
CONTINUOUS
10
38.496
20
-107.995
11
38.4961
21
-107.995
0
LINE
8
BLACK
6
CONTINUOUS
10
38.4961
20
-107.995
11
38.4963
21
-107.995
0
LINE
8
BLACK
6
CONTINUOUS
10
38.4963
20
-107.995
11
38.4965
21
-107.995
0
LINE
8
BLACK
6
CONTINUOUS
10
38.4965
20
-107.995
11
38.4997
21
-107.995
0
LINE
8
BLACK
6
CONTINUOUS
10
38.4997
20
-107.995
11
38.4998
21
-107.995
0
LINE
8
BLACK
6
CONTINUOUS
10
38.4998
20
-107.995
11
51.5002
21
-107.995
0
LINE
8
BLACK
6
CONTINUOUS
10
51.5002
20
-107.995
11
51.5005
21
-107.995
0
LINE
8
BLACK
6
CONTINUOUS
10
51.5005
20
-107.995
11
51.5005
21
-107.995
0
LINE
8
BLACK
6
CONTINUOUS
10
51.5005
20
-107.995
11
51.5976
21
-108.005
0
LINE
8
BLACK
6
CONTINUOUS
10
51.5976
20
-108.005
11
51.5977
21
-108.005
0
LINE
8
BLACK
6
CONTINUOUS
10
51.5977
20
-108.005
11
51.5982
21
-108.005
0
LINE
8
BLACK
6
CONTINUOUS
10
51.5982
20
-108.005
11
51.5986
21
-108.005
0
LINE
8
BLACK
6
CONTINUOUS
10
51.5986
20
-108.005
11
51.5986
21
-108.005
0
LINE
8
BLACK
6
CONTINUOUS
10
51.5986
20
-108.005
11
51.5986
21
-108.005
0
LINE
8
BLACK
6
CONTINUOUS
10
51.5986
20
-108.005
11
51.5986
21
-108.005
0
LINE
8
BLACK
6
CONTINUOUS
10
51.5986
20
-108.005
11
51.692
21
-108.033
0
LINE
8
BLACK
6
CONTINUOUS
10
51.692
20
-108.033
11
51.692
21
-108.033
0
LINE
8
BLACK
6
CONTINUOUS
10
51.692
20
-108.033
11
51.692
21
-108.033
0
LINE
8
BLACK
6
CONTINUOUS
10
51.692
20
-108.033
11
51.692
21
-108.033
0
LINE
8
BLACK
6
CONTINUOUS
10
51.692
20
-108.033
11
51.6925
21
-108.033
0
LINE
8
BLACK
6
CONTINUOUS
10
51.6925
20
-108.033
11
51.6929
21
-108.033
0
LINE
8
BLACK
6
CONTINUOUS
10
51.6929
20
-108.033
11
51.6929
21
-108.033
0
LINE
8
BLACK
6
CONTINUOUS
10
51.6929
20
-108.033
11
51.6929
21
-108.033
0
LINE
8
BLACK
6
CONTINUOUS
10
51.6929
20
-108.033
11
51.6929
21
-108.033
0
LINE
8
BLACK
6
CONTINUOUS
10
51.6929
20
-108.033
11
51.779
21
-108.079
0
LINE
8
BLACK
6
CONTINUOUS
10
51.779
20
-108.079
11
51.779
21
-108.079
0
LINE
8
BLACK
6
CONTINUOUS
10
51.779
20
-108.079
11
51.7791
21
-108.079
0
LINE
8
BLACK
6
CONTINUOUS
10
51.7791
20
-108.079
11
51.7791
21
-108.079
0
LINE
8
BLACK
6
CONTINUOUS
10
51.7791
20
-108.079
11
51.7795
21
-108.079
0
LINE
8
BLACK
6
CONTINUOUS
10
51.7795
20
-108.079
11
51.7799
21
-108.08
0
LINE
8
BLACK
6
CONTINUOUS
10
51.7799
20
-108.08
11
51.8555
21
-108.141
0
LINE
8
BLACK
6
CONTINUOUS
10
51.8555
20
-108.141
11
51.8555
21
-108.141
0
LINE
8
BLACK
6
CONTINUOUS
10
51.8555
20
-108.141
11
51.8559
21
-108.142
0
LINE
8
BLACK
6
CONTINUOUS
10
51.8559
20
-108.142
11
51.8562
21
-108.142
0
LINE
8
BLACK
6
CONTINUOUS
10
51.8562
20
-108.142
11
51.9184
21
-108.217
0
LINE
8
BLACK
6
CONTINUOUS
10
51.9184
20
-108.217
11
51.9184
21
-108.217
0
LINE
8
BLACK
6
CONTINUOUS
10
51.9184
20
-108.217
11
51.9187
21
-108.218
0
LINE
8
BLACK
6
CONTINUOUS
10
51.9187
20
-108.218
11
51.9189
21
-108.218
0
LINE
8
BLACK
6
CONTINUOUS
10
51.9189
20
-108.218
11
51.9653
21
-108.304
0
LINE
8
BLACK
6
CONTINUOUS
10
51.9653
20
-108.304
11
51.9654
21
-108.304
0
LINE
8
BLACK
6
CONTINUOUS
10
51.9654
20
-108.304
11
51.9655
21
-108.304
0
LINE
8
BLACK
6
CONTINUOUS
10
51.9655
20
-108.304
11
51.9657
21
-108.305
0
LINE
8
BLACK
6
CONTINUOUS
10
51.9657
20
-108.305
11
51.9946
21
-108.398
0
LINE
8
BLACK
6
CONTINUOUS
10
51.9946
20
-108.398
11
51.9946
21
-108.398
0
LINE
8
BLACK
6
CONTINUOUS
10
51.9946
20
-108.398
11
51.9946
21
-108.398
0
LINE
8
BLACK
6
CONTINUOUS
10
51.9946
20
-108.398
11
51.9946
21
-108.398
0
LINE
8
BLACK
6
CONTINUOUS
10
51.9946
20
-108.398
11
51.9947
21
-108.398
0
LINE
8
BLACK
6
CONTINUOUS
10
51.9947
20
-108.398
11
51.9948
21
-108.399
0
LINE
8
BLACK
6
CONTINUOUS
10
51.9948
20
-108.399
11
52.005
21
-108.496
0
LINE
8
BLACK
6
CONTINUOUS
10
52.005
20
-108.496
11
52.005
21
-108.496
0
LINE
8
BLACK
6
CONTINUOUS
10
52.005
20
-108.496
11
52.005
21
-108.496
0
LINE
8
BLACK
6
CONTINUOUS
10
52.005
20
-108.496
11
52.005
21
-108.496
0
LINE
8
BLACK
6
CONTINUOUS
10
52.005
20
-108.496
11
52.005
21
-108.5
0
LINE
8
BLACK
6
CONTINUOUS
10
52.005
20
-108.5
11
52.005
21
-108.5
0
LINE
8
BLACK
6
CONTINUOUS
10
52.005
20
-108.5
11
52.005
21
-121.5
0
LINE
8
BLACK
6
CONTINUOUS
10
52.005
20
-121.5
11
52.005
21
-121.5
0
LINE
8
BLACK
6
CONTINUOUS
10
52.005
20
-121.5
11
52.005
21
-121.5
0
LINE
8
BLACK
6
CONTINUOUS
10
52.005
20
-121.5
11
51.9955
21
-121.598
0
LINE
8
BLACK
6
CONTINUOUS
10
51.9955
20
-121.598
11
51.9954
21
-121.598
0
LINE
8
BLACK
6
CONTINUOUS
10
51.9954
20
-121.598
11
51.9953
21
-121.598
0
LINE
8
BLACK
6
CONTINUOUS
10
51.9953
20
-121.598
11
51.9953
21
-121.599
0
LINE
8
BLACK
6
CONTINUOUS
10
51.9953
20
-121.599
11
51.9671
21
-121.692
0
LINE
8
BLACK
6
CONTINUOUS
10
51.9671
20
-121.692
11
51.9671
21
-121.692
0
LINE
8
BLACK
6
CONTINUOUS
10
51.9671
20
-121.692
11
51.9671
21
-121.692
0
LINE
8
BLACK
6
CONTINUOUS
10
51.9671
20
-121.692
11
51.967
21
-121.692
0
LINE
8
BLACK
6
CONTINUOUS
10
51.967
20
-121.692
11
51.9669
21
-121.692
0
LINE
8
BLACK
6
CONTINUOUS
10
51.9669
20
-121.692
11
51.9667
21
-121.693
0
LINE
8
BLACK
6
CONTINUOUS
10
51.9667
20
-121.693
11
51.9209
21
-121.779
0
LINE
8
BLACK
6
CONTINUOUS
10
51.9209
20
-121.779
11
51.9209
21
-121.779
0
LINE
8
BLACK
6
CONTINUOUS
10
51.9209
20
-121.779
11
51.9209
21
-121.779
0
LINE
8
BLACK
6
CONTINUOUS
10
51.9209
20
-121.779
11
51.9208
21
-121.779
0
LINE
8
BLACK
6
CONTINUOUS
10
51.9208
20
-121.779
11
51.9206
21
-121.78
0
LINE
8
BLACK
6
CONTINUOUS
10
51.9206
20
-121.78
11
51.9203
21
-121.78
0
LINE
8
BLACK
6
CONTINUOUS
10
51.9203
20
-121.78
11
51.8587
21
-121.855
0
LINE
8
BLACK
6
CONTINUOUS
10
51.8587
20
-121.855
11
51.8586
21
-121.856
0
LINE
8
BLACK
6
CONTINUOUS
10
51.8586
20
-121.856
11
51.8583
21
-121.856
0
LINE
8
BLACK
6
CONTINUOUS
10
51.8583
20
-121.856
11
51.858
21
-121.856
0
LINE
8
BLACK
6
CONTINUOUS
10
51.858
20
-121.856
11
51.7828
21
-121.918
0
LINE
8
BLACK
6
CONTINUOUS
10
51.7828
20
-121.918
11
51.7827
21
-121.918
0
LINE
8
BLACK
6
CONTINUOUS
10
51.7827
20
-121.918
11
51.7823
21
-121.919
0
LINE
8
BLACK
6
CONTINUOUS
10
51.7823
20
-121.919
11
51.782
21
-121.919
0
LINE
8
BLACK
6
CONTINUOUS
10
51.782
20
-121.919
11
51.6961
21
-121.965
0
LINE
8
BLACK
6
CONTINUOUS
10
51.6961
20
-121.965
11
51.6961
21
-121.965
0
LINE
8
BLACK
6
CONTINUOUS
10
51.6961
20
-121.965
11
51.6956
21
-121.966
0
LINE
8
BLACK
6
CONTINUOUS
10
51.6956
20
-121.966
11
51.6952
21
-121.966
0
LINE
8
BLACK
6
CONTINUOUS
10
51.6952
20
-121.966
11
51.6952
21
-121.966
0
LINE
8
BLACK
6
CONTINUOUS
10
51.6952
20
-121.966
11
51.6952
21
-121.966
0
LINE
8
BLACK
6
CONTINUOUS
10
51.6952
20
-121.966
11
51.6952
21
-121.966
0
LINE
8
BLACK
6
CONTINUOUS
10
51.6952
20
-121.966
11
51.602
21
-121.995
0
LINE
8
BLACK
6
CONTINUOUS
10
51.602
20
-121.995
11
51.602
21
-121.995
0
LINE
8
BLACK
6
CONTINUOUS
10
51.602
20
-121.995
11
51.602
21
-121.995
0
LINE
8
BLACK
6
CONTINUOUS
10
38.5
20
-108.005
11
38.4968
21
-108.005
0
LINE
8
BLACK
6
CONTINUOUS
10
38.4968
20
-108.005
11
38.4005
21
-108.015
0
LINE
8
BLACK
6
CONTINUOUS
10
38.4005
20
-108.015
11
38.3082
21
-108.044
0
LINE
8
BLACK
6
CONTINUOUS
10
38.3082
20
-108.044
11
38.2232
21
-108.09
0
LINE
8
BLACK
6
CONTINUOUS
10
38.2232
20
-108.09
11
38.1488
21
-108.151
0
LINE
8
BLACK
6
CONTINUOUS
10
38.1488
20
-108.151
11
38.0877
21
-108.226
0
LINE
8
BLACK
6
CONTINUOUS
10
38.0877
20
-108.226
11
38.0424
21
-108.311
0
LINE
8
BLACK
6
CONTINUOUS
10
38.0424
20
-108.311
11
38.0145
21
-108.404
0
LINE
8
BLACK
6
CONTINUOUS
10
38.0145
20
-108.404
11
38.005
21
-108.5
0
LINE
8
BLACK
6
CONTINUOUS
10
38.005
20
-108.5
11
38.005
21
-121.491
0
LINE
8
BLACK
6
CONTINUOUS
10
38.005
20
-121.491
11
38.005
21
-121.494
0
LINE
8
BLACK
6
CONTINUOUS
10
38.005
20
-121.494
11
38.0151
21
-121.59
0
LINE
8
BLACK
6
CONTINUOUS
10
38.0151
20
-121.59
11
38.0437
21
-121.683
0
LINE
8
BLACK
6
CONTINUOUS
10
38.0437
20
-121.683
11
38.0896
21
-121.768
0
LINE
8
BLACK
6
CONTINUOUS
10
38.0896
20
-121.768
11
38.1512
21
-121.842
0
LINE
8
BLACK
6
CONTINUOUS
10
38.1512
20
-121.842
11
38.2261
21
-121.903
0
LINE
8
BLACK
6
CONTINUOUS
10
38.2261
20
-121.903
11
38.3114
21
-121.949
0
LINE
8
BLACK
6
CONTINUOUS
10
38.3114
20
-121.949
11
38.4039
21
-121.976
0
LINE
8
BLACK
6
CONTINUOUS
10
38.4039
20
-121.976
11
38.5002
21
-121.986
0
LINE
8
BLACK
6
CONTINUOUS
10
38.5002
20
-121.986
11
51.5
21
-121.995
0
LINE
8
BLACK
6
CONTINUOUS
10
51.5
20
-121.995
11
51.5032
21
-121.995
0
LINE
8
BLACK
6
CONTINUOUS
10
51.5032
20
-121.995
11
51.5995
21
-121.985
0
LINE
8
BLACK
6
CONTINUOUS
10
51.5995
20
-121.985
11
51.6918
21
-121.956
0
LINE
8
BLACK
6
CONTINUOUS
10
51.6918
20
-121.956
11
51.7768
21
-121.91
0
LINE
8
BLACK
6
CONTINUOUS
10
51.7768
20
-121.91
11
51.8512
21
-121.849
0
LINE
8
BLACK
6
CONTINUOUS
10
51.8512
20
-121.849
11
51.9123
21
-121.774
0
LINE
8
BLACK
6
CONTINUOUS
10
51.9123
20
-121.774
11
51.9576
21
-121.689
0
LINE
8
BLACK
6
CONTINUOUS
10
51.9576
20
-121.689
11
51.9855
21
-121.596
0
LINE
8
BLACK
6
CONTINUOUS
10
51.9855
20
-121.596
11
51.995
21
-121.5
0
LINE
8
BLACK
6
CONTINUOUS
10
51.995
20
-121.5
11
51.995
21
-108.5
0
LINE
8
BLACK
6
CONTINUOUS
10
51.995
20
-108.5
11
51.995
21
-108.497
0
LINE
8
BLACK
6
CONTINUOUS
10
51.995
20
-108.497
11
51.9849
21
-108.4
0
LINE
8
BLACK
6
CONTINUOUS
10
51.9849
20
-108.4
11
51.9563
21
-108.308
0
LINE
8
BLACK
6
CONTINUOUS
10
51.9563
20
-108.308
11
51.9104
21
-108.223
0
LINE
8
BLACK
6
CONTINUOUS
10
51.9104
20
-108.223
11
51.8488
21
-108.149
0
LINE
8
BLACK
6
CONTINUOUS
10
51.8488
20
-108.149
11
51.7739
21
-108.088
0
LINE
8
BLACK
6
CONTINUOUS
10
51.7739
20
-108.088
11
51.6886
21
-108.042
0
LINE
8
BLACK
6
CONTINUOUS
10
51.6886
20
-108.042
11
51.5961
21
-108.014
0
LINE
8
BLACK
6
CONTINUOUS
10
51.5961
20
-108.014
11
51.4998
21
-108.005
0
LINE
8
BLACK
6
CONTINUOUS
10
51.4998
20
-108.005
11
38.5
21
-108.005
0
LINE
8
BLACK
6
CONTINUOUS
10
127.582
20
-111.003
11
127.581
21
-111.003
0
LINE
8
BLACK
6
CONTINUOUS
10
127.581
20
-111.003
11
127.581
21
-111.003
0
LINE
8
BLACK
6
CONTINUOUS
10
127.581
20
-111.003
11
127.484
21
-111.013
0
LINE
8
BLACK
6
CONTINUOUS
10
127.484
20
-111.013
11
127.484
21
-111.013
0
LINE
8
BLACK
6
CONTINUOUS
10
127.484
20
-111.013
11
127.484
21
-111.013
0
LINE
8
BLACK
6
CONTINUOUS
10
127.484
20
-111.013
11
127.484
21
-111.013
0
LINE
8
BLACK
6
CONTINUOUS
10
127.484
20
-111.013
11
127.48
21
-111.013
0
LINE
8
BLACK
6
CONTINUOUS
10
127.48
20
-111.013
11
127.48
21
-111.013
0
LINE
8
BLACK
6
CONTINUOUS
10
127.48
20
-111.013
11
127.48
21
-111.013
0
LINE
8
BLACK
6
CONTINUOUS
10
127.48
20
-111.013
11
114.48
21
-111.004
0
LINE
8
BLACK
6
CONTINUOUS
10
114.48
20
-111.004
11
114.48
21
-111.004
0
LINE
8
BLACK
6
CONTINUOUS
10
114.48
20
-111.004
11
114.48
21
-111.004
0
LINE
8
BLACK
6
CONTINUOUS
10
114.48
20
-111.004
11
114.382
21
-110.994
0
LINE
8
BLACK
6
CONTINUOUS
10
114.382
20
-110.994
11
114.382
21
-110.994
0
LINE
8
BLACK
6
CONTINUOUS
10
114.382
20
-110.994
11
114.382
21
-110.994
0
LINE
8
BLACK
6
CONTINUOUS
10
114.382
20
-110.994
11
114.381
21
-110.994
0
LINE
8
BLACK
6
CONTINUOUS
10
114.381
20
-110.994
11
114.381
21
-110.994
0
LINE
8
BLACK
6
CONTINUOUS
10
114.381
20
-110.994
11
114.381
21
-110.994
0
LINE
8
BLACK
6
CONTINUOUS
10
114.381
20
-110.994
11
114.381
21
-110.994
0
LINE
8
BLACK
6
CONTINUOUS
10
114.381
20
-110.994
11
114.288
21
-110.966
0
LINE
8
BLACK
6
CONTINUOUS
10
114.288
20
-110.966
11
114.288
21
-110.966
0
LINE
8
BLACK
6
CONTINUOUS
10
114.288
20
-110.966
11
114.288
21
-110.966
0
LINE
8
BLACK
6
CONTINUOUS
10
114.288
20
-110.966
11
114.288
21
-110.966
0
LINE
8
BLACK
6
CONTINUOUS
10
114.288
20
-110.966
11
114.287
21
-110.966
0
LINE
8
BLACK
6
CONTINUOUS
10
114.287
20
-110.966
11
114.287
21
-110.966
0
LINE
8
BLACK
6
CONTINUOUS
10
114.287
20
-110.966
11
114.287
21
-110.966
0
LINE
8
BLACK
6
CONTINUOUS
10
114.287
20
-110.966
11
114.287
21
-110.966
0
LINE
8
BLACK
6
CONTINUOUS
10
114.287
20
-110.966
11
114.287
21
-110.966
0
LINE
8
BLACK
6
CONTINUOUS
10
114.287
20
-110.966
11
114.201
21
-110.92
0
LINE
8
BLACK
6
CONTINUOUS
10
114.201
20
-110.92
11
114.201
21
-110.92
0
LINE
8
BLACK
6
CONTINUOUS
10
114.201
20
-110.92
11
114.201
21
-110.92
0
LINE
8
BLACK
6
CONTINUOUS
10
114.201
20
-110.92
11
114.201
21
-110.92
0
LINE
8
BLACK
6
CONTINUOUS
10
114.201
20
-110.92
11
114.2
21
-110.919
0
LINE
8
BLACK
6
CONTINUOUS
10
114.2
20
-110.919
11
114.2
21
-110.919
0
LINE
8
BLACK
6
CONTINUOUS
10
114.2
20
-110.919
11
114.125
21
-110.858
0
LINE
8
BLACK
6
CONTINUOUS
10
114.125
20
-110.858
11
114.124
21
-110.858
0
LINE
8
BLACK
6
CONTINUOUS
10
114.124
20
-110.858
11
114.124
21
-110.857
0
LINE
8
BLACK
6
CONTINUOUS
10
114.124
20
-110.857
11
114.124
21
-110.857
0
LINE
8
BLACK
6
CONTINUOUS
10
114.124
20
-110.857
11
114.062
21
-110.782
0
LINE
8
BLACK
6
CONTINUOUS
10
114.062
20
-110.782
11
114.062
21
-110.782
0
LINE
8
BLACK
6
CONTINUOUS
10
114.062
20
-110.782
11
114.061
21
-110.781
0
LINE
8
BLACK
6
CONTINUOUS
10
114.061
20
-110.781
11
114.061
21
-110.781
0
LINE
8
BLACK
6
CONTINUOUS
10
114.061
20
-110.781
11
114.015
21
-110.695
0
LINE
8
BLACK
6
CONTINUOUS
10
114.015
20
-110.695
11
114.015
21
-110.695
0
LINE
8
BLACK
6
CONTINUOUS
10
114.015
20
-110.695
11
114.014
21
-110.695
0
LINE
8
BLACK
6
CONTINUOUS
10
114.014
20
-110.695
11
114.014
21
-110.694
0
LINE
8
BLACK
6
CONTINUOUS
10
114.014
20
-110.694
11
114.014
21
-110.694
0
LINE
8
BLACK
6
CONTINUOUS
10
114.014
20
-110.694
11
114.014
21
-110.694
0
LINE
8
BLACK
6
CONTINUOUS
10
114.014
20
-110.694
11
114.014
21
-110.694
0
LINE
8
BLACK
6
CONTINUOUS
10
114.014
20
-110.694
11
113.985
21
-110.601
0
LINE
8
BLACK
6
CONTINUOUS
10
113.985
20
-110.601
11
113.985
21
-110.601
0
LINE
8
BLACK
6
CONTINUOUS
10
113.985
20
-110.601
11
113.985
21
-110.6
0
LINE
8
BLACK
6
CONTINUOUS
10
113.985
20
-110.6
11
113.985
21
-110.6
0
LINE
8
BLACK
6
CONTINUOUS
10
113.985
20
-110.6
11
113.975
21
-110.503
0
LINE
8
BLACK
6
CONTINUOUS
10
113.975
20
-110.503
11
113.975
21
-110.503
0
LINE
8
BLACK
6
CONTINUOUS
10
113.975
20
-110.503
11
113.975
21
-110.503
0
LINE
8
BLACK
6
CONTINUOUS
10
113.975
20
-110.503
11
113.975
21
-110.502
0
LINE
8
BLACK
6
CONTINUOUS
10
113.975
20
-110.502
11
113.975
21
-110.499
0
LINE
8
BLACK
6
CONTINUOUS
10
113.975
20
-110.499
11
113.975
21
-110.499
0
LINE
8
BLACK
6
CONTINUOUS
10
113.975
20
-110.499
11
113.975
21
-110.499
0
LINE
8
BLACK
6
CONTINUOUS
10
113.975
20
-110.499
11
113.975
21
-97.5078
0
LINE
8
BLACK
6
CONTINUOUS
10
113.975
20
-97.5078
11
113.975
21
-97.5075
0
LINE
8
BLACK
6
CONTINUOUS
10
113.975
20
-97.5075
11
113.985
21
-97.4104
0
LINE
8
BLACK
6
CONTINUOUS
10
113.985
20
-97.4104
11
113.985
21
-97.4103
0
LINE
8
BLACK
6
CONTINUOUS
10
113.985
20
-97.4103
11
113.985
21
-97.4098
0
LINE
8
BLACK
6
CONTINUOUS
10
113.985
20
-97.4098
11
113.985
21
-97.4094
0
LINE
8
BLACK
6
CONTINUOUS
10
113.985
20
-97.4094
11
114.013
21
-97.316
0
LINE
8
BLACK
6
CONTINUOUS
10
114.013
20
-97.316
11
114.013
21
-97.316
0
LINE
8
BLACK
6
CONTINUOUS
10
114.013
20
-97.316
11
114.013
21
-97.316
0
LINE
8
BLACK
6
CONTINUOUS
10
114.013
20
-97.316
11
114.013
21
-97.316
0
LINE
8
BLACK
6
CONTINUOUS
10
114.013
20
-97.316
11
114.013
21
-97.3155
0
LINE
8
BLACK
6
CONTINUOUS
10
114.013
20
-97.3155
11
114.013
21
-97.3151
0
LINE
8
BLACK
6
CONTINUOUS
10
114.013
20
-97.3151
11
114.059
21
-97.229
0
LINE
8
BLACK
6
CONTINUOUS
10
114.059
20
-97.229
11
114.059
21
-97.229
0
LINE
8
BLACK
6
CONTINUOUS
10
114.059
20
-97.229
11
114.059
21
-97.2289
0
LINE
8
BLACK
6
CONTINUOUS
10
114.059
20
-97.2289
11
114.059
21
-97.2289
0
LINE
8
BLACK
6
CONTINUOUS
10
114.059
20
-97.2289
11
114.059
21
-97.2285
0
LINE
8
BLACK
6
CONTINUOUS
10
114.059
20
-97.2285
11
114.06
21
-97.2281
0
LINE
8
BLACK
6
CONTINUOUS
10
114.06
20
-97.2281
11
114.121
21
-97.1525
0
LINE
8
BLACK
6
CONTINUOUS
10
114.121
20
-97.1525
11
114.121
21
-97.1525
0
LINE
8
BLACK
6
CONTINUOUS
10
114.121
20
-97.1525
11
114.122
21
-97.1521
0
LINE
8
BLACK
6
CONTINUOUS
10
114.122
20
-97.1521
11
114.122
21
-97.1518
0
LINE
8
BLACK
6
CONTINUOUS
10
114.122
20
-97.1518
11
114.197
21
-97.0896
0
LINE
8
BLACK
6
CONTINUOUS
10
114.197
20
-97.0896
11
114.197
21
-97.0896
0
LINE
8
BLACK
6
CONTINUOUS
10
114.197
20
-97.0896
11
114.198
21
-97.0893
0
LINE
8
BLACK
6
CONTINUOUS
10
114.198
20
-97.0893
11
114.198
21
-97.0891
0
LINE
8
BLACK
6
CONTINUOUS
10
114.198
20
-97.0891
11
114.284
21
-97.0427
0
LINE
8
BLACK
6
CONTINUOUS
10
114.284
20
-97.0427
11
114.284
21
-97.0426
0
LINE
8
BLACK
6
CONTINUOUS
10
114.284
20
-97.0426
11
114.284
21
-97.0425
0
LINE
8
BLACK
6
CONTINUOUS
10
114.284
20
-97.0425
11
114.285
21
-97.0423
0
LINE
8
BLACK
6
CONTINUOUS
10
114.285
20
-97.0423
11
114.378
21
-97.0134
0
LINE
8
BLACK
6
CONTINUOUS
10
114.378
20
-97.0134
11
114.378
21
-97.0134
0
LINE
8
BLACK
6
CONTINUOUS
10
114.378
20
-97.0134
11
114.378
21
-97.0134
0
LINE
8
BLACK
6
CONTINUOUS
10
114.378
20
-97.0134
11
114.378
21
-97.0134
0
LINE
8
BLACK
6
CONTINUOUS
10
114.378
20
-97.0134
11
114.378
21
-97.0133
0
LINE
8
BLACK
6
CONTINUOUS
10
114.378
20
-97.0133
11
114.379
21
-97.0132
0
LINE
8
BLACK
6
CONTINUOUS
10
114.379
20
-97.0132
11
114.476
21
-97.003
0
LINE
8
BLACK
6
CONTINUOUS
10
114.476
20
-97.003
11
114.476
21
-97.003
0
LINE
8
BLACK
6
CONTINUOUS
10
114.476
20
-97.003
11
114.476
21
-97.003
0
LINE
8
BLACK
6
CONTINUOUS
10
114.476
20
-97.003
11
114.476
21
-97.003
0
LINE
8
BLACK
6
CONTINUOUS
10
114.476
20
-97.003
11
114.48
21
-97.003
0
LINE
8
BLACK
6
CONTINUOUS
10
114.48
20
-97.003
11
114.48
21
-97.003
0
LINE
8
BLACK
6
CONTINUOUS
10
114.48
20
-97.003
11
127.48
21
-97.003
0
LINE
8
BLACK
6
CONTINUOUS
10
127.48
20
-97.003
11
127.48
21
-97.003
0
LINE
8
BLACK
6
CONTINUOUS
10
127.48
20
-97.003
11
127.48
21
-97.003
0
LINE
8
BLACK
6
CONTINUOUS
10
127.48
20
-97.003
11
127.578
21
-97.0125
0
LINE
8
BLACK
6
CONTINUOUS
10
127.578
20
-97.0125
11
127.578
21
-97.0125
0
LINE
8
BLACK
6
CONTINUOUS
10
127.578
20
-97.0125
11
127.578
21
-97.0127
0
LINE
8
BLACK
6
CONTINUOUS
10
127.578
20
-97.0127
11
127.579
21
-97.0127
0
LINE
8
BLACK
6
CONTINUOUS
10
127.579
20
-97.0127
11
127.579
21
-97.0128
0
LINE
8
BLACK
6
CONTINUOUS
10
127.579
20
-97.0128
11
127.579
21
-97.0128
0
LINE
8
BLACK
6
CONTINUOUS
10
127.579
20
-97.0128
11
127.579
21
-97.0128
0
LINE
8
BLACK
6
CONTINUOUS
10
127.579
20
-97.0128
11
127.672
21
-97.0409
0
LINE
8
BLACK
6
CONTINUOUS
10
127.672
20
-97.0409
11
127.672
21
-97.0409
0
LINE
8
BLACK
6
CONTINUOUS
10
127.672
20
-97.0409
11
127.672
21
-97.0409
0
LINE
8
BLACK
6
CONTINUOUS
10
127.672
20
-97.0409
11
127.672
21
-97.041
0
LINE
8
BLACK
6
CONTINUOUS
10
127.672
20
-97.041
11
127.672
21
-97.0411
0
LINE
8
BLACK
6
CONTINUOUS
10
127.672
20
-97.0411
11
127.673
21
-97.0413
0
LINE
8
BLACK
6
CONTINUOUS
10
127.673
20
-97.0413
11
127.673
21
-97.0413
0
LINE
8
BLACK
6
CONTINUOUS
10
127.673
20
-97.0413
11
127.673
21
-97.0413
0
LINE
8
BLACK
6
CONTINUOUS
10
127.673
20
-97.0413
11
127.673
21
-97.0413
0
LINE
8
BLACK
6
CONTINUOUS
10
127.673
20
-97.0413
11
127.759
21
-97.0871
0
LINE
8
BLACK
6
CONTINUOUS
10
127.759
20
-97.0871
11
127.759
21
-97.0871
0
LINE
8
BLACK
6
CONTINUOUS
10
127.759
20
-97.0871
11
127.759
21
-97.0871
0
LINE
8
BLACK
6
CONTINUOUS
10
127.759
20
-97.0871
11
127.759
21
-97.0872
0
LINE
8
BLACK
6
CONTINUOUS
10
127.759
20
-97.0872
11
127.759
21
-97.0874
0
LINE
8
BLACK
6
CONTINUOUS
10
127.759
20
-97.0874
11
127.76
21
-97.0877
0
LINE
8
BLACK
6
CONTINUOUS
10
127.76
20
-97.0877
11
127.835
21
-97.1493
0
LINE
8
BLACK
6
CONTINUOUS
10
127.835
20
-97.1493
11
127.836
21
-97.1494
0
LINE
8
BLACK
6
CONTINUOUS
10
127.836
20
-97.1494
11
127.836
21
-97.1497
0
LINE
8
BLACK
6
CONTINUOUS
10
127.836
20
-97.1497
11
127.836
21
-97.15
0
LINE
8
BLACK
6
CONTINUOUS
10
127.836
20
-97.15
11
127.898
21
-97.2252
0
LINE
8
BLACK
6
CONTINUOUS
10
127.898
20
-97.2252
11
127.898
21
-97.2253
0
LINE
8
BLACK
6
CONTINUOUS
10
127.898
20
-97.2253
11
127.899
21
-97.2256
0
LINE
8
BLACK
6
CONTINUOUS
10
127.899
20
-97.2256
11
127.899
21
-97.226
0
LINE
8
BLACK
6
CONTINUOUS
10
127.899
20
-97.226
11
127.945
21
-97.3119
0
LINE
8
BLACK
6
CONTINUOUS
10
127.945
20
-97.3119
11
127.945
21
-97.3119
0
LINE
8
BLACK
6
CONTINUOUS
10
127.945
20
-97.3119
11
127.946
21
-97.3124
0
LINE
8
BLACK
6
CONTINUOUS
10
127.946
20
-97.3124
11
127.946
21
-97.3128
0
LINE
8
BLACK
6
CONTINUOUS
10
127.946
20
-97.3128
11
127.975
21
-97.406
0
LINE
8
BLACK
6
CONTINUOUS
10
127.975
20
-97.406
11
127.975
21
-97.406
0
LINE
8
BLACK
6
CONTINUOUS
10
127.975
20
-97.406
11
127.975
21
-97.406
0
LINE
8
BLACK
6
CONTINUOUS
10
127.975
20
-97.406
11
127.975
21
-97.406
0
LINE
8
BLACK
6
CONTINUOUS
10
127.975
20
-97.406
11
127.975
21
-97.4065
0
LINE
8
BLACK
6
CONTINUOUS
10
127.975
20
-97.4065
11
127.975
21
-97.4069
0
LINE
8
BLACK
6
CONTINUOUS
10
127.975
20
-97.4069
11
127.985
21
-97.504
0
LINE
8
BLACK
6
CONTINUOUS
10
127.985
20
-97.504
11
127.985
21
-97.5041
0
LINE
8
BLACK
6
CONTINUOUS
10
127.985
20
-97.5041
11
127.985
21
-97.5043
0
LINE
8
BLACK
6
CONTINUOUS
10
127.985
20
-97.5043
11
127.985
21
-97.5045
0
LINE
8
BLACK
6
CONTINUOUS
10
127.985
20
-97.5045
11
127.985
21
-97.5077
0
LINE
8
BLACK
6
CONTINUOUS
10
127.985
20
-97.5077
11
127.985
21
-97.5078
0
LINE
8
BLACK
6
CONTINUOUS
10
127.985
20
-97.5078
11
127.985
21
-110.508
0
LINE
8
BLACK
6
CONTINUOUS
10
127.985
20
-110.508
11
127.985
21
-110.508
0
LINE
8
BLACK
6
CONTINUOUS
10
127.985
20
-110.508
11
127.985
21
-110.508
0
LINE
8
BLACK
6
CONTINUOUS
10
127.985
20
-110.508
11
127.975
21
-110.606
0
LINE
8
BLACK
6
CONTINUOUS
10
127.975
20
-110.606
11
127.975
21
-110.606
0
LINE
8
BLACK
6
CONTINUOUS
10
127.975
20
-110.606
11
127.975
21
-110.606
0
LINE
8
BLACK
6
CONTINUOUS
10
127.975
20
-110.606
11
127.975
21
-110.607
0
LINE
8
BLACK
6
CONTINUOUS
10
127.975
20
-110.607
11
127.947
21
-110.7
0
LINE
8
BLACK
6
CONTINUOUS
10
127.947
20
-110.7
11
127.947
21
-110.7
0
LINE
8
BLACK
6
CONTINUOUS
10
127.947
20
-110.7
11
127.947
21
-110.7
0
LINE
8
BLACK
6
CONTINUOUS
10
127.947
20
-110.7
11
127.947
21
-110.7
0
LINE
8
BLACK
6
CONTINUOUS
10
127.947
20
-110.7
11
127.947
21
-110.7
0
LINE
8
BLACK
6
CONTINUOUS
10
127.947
20
-110.7
11
127.947
21
-110.701
0
LINE
8
BLACK
6
CONTINUOUS
10
127.947
20
-110.701
11
127.901
21
-110.787
0
LINE
8
BLACK
6
CONTINUOUS
10
127.901
20
-110.787
11
127.901
21
-110.787
0
LINE
8
BLACK
6
CONTINUOUS
10
127.901
20
-110.787
11
127.901
21
-110.787
0
LINE
8
BLACK
6
CONTINUOUS
10
127.901
20
-110.787
11
127.901
21
-110.787
0
LINE
8
BLACK
6
CONTINUOUS
10
127.901
20
-110.787
11
127.901
21
-110.788
0
LINE
8
BLACK
6
CONTINUOUS
10
127.901
20
-110.788
11
127.9
21
-110.788
0
LINE
8
BLACK
6
CONTINUOUS
10
127.9
20
-110.788
11
127.839
21
-110.863
0
LINE
8
BLACK
6
CONTINUOUS
10
127.839
20
-110.863
11
127.839
21
-110.864
0
LINE
8
BLACK
6
CONTINUOUS
10
127.839
20
-110.864
11
127.838
21
-110.864
0
LINE
8
BLACK
6
CONTINUOUS
10
127.838
20
-110.864
11
127.838
21
-110.864
0
LINE
8
BLACK
6
CONTINUOUS
10
127.838
20
-110.864
11
127.763
21
-110.926
0
LINE
8
BLACK
6
CONTINUOUS
10
127.763
20
-110.926
11
127.763
21
-110.926
0
LINE
8
BLACK
6
CONTINUOUS
10
127.763
20
-110.926
11
127.762
21
-110.927
0
LINE
8
BLACK
6
CONTINUOUS
10
127.762
20
-110.927
11
127.762
21
-110.927
0
LINE
8
BLACK
6
CONTINUOUS
10
127.762
20
-110.927
11
127.676
21
-110.973
0
LINE
8
BLACK
6
CONTINUOUS
10
127.676
20
-110.973
11
127.676
21
-110.973
0
LINE
8
BLACK
6
CONTINUOUS
10
127.676
20
-110.973
11
127.676
21
-110.974
0
LINE
8
BLACK
6
CONTINUOUS
10
127.676
20
-110.974
11
127.675
21
-110.974
0
LINE
8
BLACK
6
CONTINUOUS
10
127.675
20
-110.974
11
127.675
21
-110.974
0
LINE
8
BLACK
6
CONTINUOUS
10
127.675
20
-110.974
11
127.675
21
-110.974
0
LINE
8
BLACK
6
CONTINUOUS
10
127.675
20
-110.974
11
127.675
21
-110.974
0
LINE
8
BLACK
6
CONTINUOUS
10
127.675
20
-110.974
11
127.582
21
-111.003
0
LINE
8
BLACK
6
CONTINUOUS
10
127.582
20
-111.003
11
127.582
21
-111.003
0
LINE
8
BLACK
6
CONTINUOUS
10
127.582
20
-111.003
11
127.582
21
-111.003
0
LINE
8
BLACK
6
CONTINUOUS
10
114.48
20
-97.013
11
114.477
21
-97.013
0
LINE
8
BLACK
6
CONTINUOUS
10
114.477
20
-97.013
11
114.38
21
-97.0231
0
LINE
8
BLACK
6
CONTINUOUS
10
114.38
20
-97.0231
11
114.288
21
-97.0517
0
LINE
8
BLACK
6
CONTINUOUS
10
114.288
20
-97.0517
11
114.203
21
-97.0976
0
LINE
8
BLACK
6
CONTINUOUS
10
114.203
20
-97.0976
11
114.129
21
-97.1592
0
LINE
8
BLACK
6
CONTINUOUS
10
114.129
20
-97.1592
11
114.068
21
-97.2341
0
LINE
8
BLACK
6
CONTINUOUS
10
114.068
20
-97.2341
11
114.022
21
-97.3194
0
LINE
8
BLACK
6
CONTINUOUS
10
114.022
20
-97.3194
11
113.994
21
-97.4119
0
LINE
8
BLACK
6
CONTINUOUS
10
113.994
20
-97.4119
11
113.985
21
-97.5082
0
LINE
8
BLACK
6
CONTINUOUS
10
113.985
20
-97.5082
11
113.985
21
-110.499
0
LINE
8
BLACK
6
CONTINUOUS
10
113.985
20
-110.499
11
113.985
21
-110.502
0
LINE
8
BLACK
6
CONTINUOUS
10
113.985
20
-110.502
11
113.995
21
-110.598
0
LINE
8
BLACK
6
CONTINUOUS
10
113.995
20
-110.598
11
114.024
21
-110.691
0
LINE
8
BLACK
6
CONTINUOUS
10
114.024
20
-110.691
11
114.07
21
-110.776
0
LINE
8
BLACK
6
CONTINUOUS
10
114.07
20
-110.776
11
114.131
21
-110.85
0
LINE
8
BLACK
6
CONTINUOUS
10
114.131
20
-110.85
11
114.206
21
-110.911
0
LINE
8
BLACK
6
CONTINUOUS
10
114.206
20
-110.911
11
114.291
21
-110.957
0
LINE
8
BLACK
6
CONTINUOUS
10
114.291
20
-110.957
11
114.384
21
-110.984
0
LINE
8
BLACK
6
CONTINUOUS
10
114.384
20
-110.984
11
114.48
21
-110.994
0
LINE
8
BLACK
6
CONTINUOUS
10
114.48
20
-110.994
11
127.48
21
-111.003
0
LINE
8
BLACK
6
CONTINUOUS
10
127.48
20
-111.003
11
127.483
21
-111.003
0
LINE
8
BLACK
6
CONTINUOUS
10
127.483
20
-111.003
11
127.58
21
-110.993
0
LINE
8
BLACK
6
CONTINUOUS
10
127.58
20
-110.993
11
127.672
21
-110.964
0
LINE
8
BLACK
6
CONTINUOUS
10
127.672
20
-110.964
11
127.757
21
-110.918
0
LINE
8
BLACK
6
CONTINUOUS
10
127.757
20
-110.918
11
127.831
21
-110.857
0
LINE
8
BLACK
6
CONTINUOUS
10
127.831
20
-110.857
11
127.892
21
-110.782
0
LINE
8
BLACK
6
CONTINUOUS
10
127.892
20
-110.782
11
127.938
21
-110.697
0
LINE
8
BLACK
6
CONTINUOUS
10
127.938
20
-110.697
11
127.966
21
-110.604
0
LINE
8
BLACK
6
CONTINUOUS
10
127.966
20
-110.604
11
127.975
21
-110.508
0
LINE
8
BLACK
6
CONTINUOUS
10
127.975
20
-110.508
11
127.975
21
-97.508
0
LINE
8
BLACK
6
CONTINUOUS
10
127.975
20
-97.508
11
127.975
21
-97.5048
0
LINE
8
BLACK
6
CONTINUOUS
10
127.975
20
-97.5048
11
127.965
21
-97.4085
0
LINE
8
BLACK
6
CONTINUOUS
10
127.965
20
-97.4085
11
127.936
21
-97.3162
0
LINE
8
BLACK
6
CONTINUOUS
10
127.936
20
-97.3162
11
127.89
21
-97.2312
0
LINE
8
BLACK
6
CONTINUOUS
10
127.89
20
-97.2312
11
127.829
21
-97.1568
0
LINE
8
BLACK
6
CONTINUOUS
10
127.829
20
-97.1568
11
127.754
21
-97.0957
0
LINE
8
BLACK
6
CONTINUOUS
10
127.754
20
-97.0957
11
127.669
21
-97.0504
0
LINE
8
BLACK
6
CONTINUOUS
10
127.669
20
-97.0504
11
127.576
21
-97.0225
0
LINE
8
BLACK
6
CONTINUOUS
10
127.576
20
-97.0225
11
127.48
21
-97.013
0
LINE
8
BLACK
6
CONTINUOUS
10
127.48
20
-97.013
11
114.48
21
-97.013
0
LINE
8
BLACK
6
CONTINUOUS
10
70.61
20
-110.119
11
70.6095
21
-110.119
0
LINE
8
BLACK
6
CONTINUOUS
10
70.6095
20
-110.119
11
70.6091
21
-110.119
0
LINE
8
BLACK
6
CONTINUOUS
10
70.6091
20
-110.119
11
70.512
21
-110.129
0
LINE
8
BLACK
6
CONTINUOUS
10
70.512
20
-110.129
11
70.5119
21
-110.129
0
LINE
8
BLACK
6
CONTINUOUS
10
70.5119
20
-110.129
11
70.5117
21
-110.129
0
LINE
8
BLACK
6
CONTINUOUS
10
70.5117
20
-110.129
11
70.5115
21
-110.129
0
LINE
8
BLACK
6
CONTINUOUS
10
70.5115
20
-110.129
11
70.5082
21
-110.129
0
LINE
8
BLACK
6
CONTINUOUS
10
70.5082
20
-110.129
11
70.5082
21
-110.129
0
LINE
8
BLACK
6
CONTINUOUS
10
70.5082
20
-110.129
11
70.5079
21
-110.129
0
LINE
8
BLACK
6
CONTINUOUS
10
70.5079
20
-110.129
11
57.5078
21
-110.12
0
LINE
8
BLACK
6
CONTINUOUS
10
57.5078
20
-110.12
11
57.5075
21
-110.12
0
LINE
8
BLACK
6
CONTINUOUS
10
57.5075
20
-110.12
11
57.5075
21
-110.12
0
LINE
8
BLACK
6
CONTINUOUS
10
57.5075
20
-110.12
11
57.4104
21
-110.11
0
LINE
8
BLACK
6
CONTINUOUS
10
57.4104
20
-110.11
11
57.4103
21
-110.11
0
LINE
8
BLACK
6
CONTINUOUS
10
57.4103
20
-110.11
11
57.4098
21
-110.11
0
LINE
8
BLACK
6
CONTINUOUS
10
57.4098
20
-110.11
11
57.4094
21
-110.11
0
LINE
8
BLACK
6
CONTINUOUS
10
57.4094
20
-110.11
11
57.4094
21
-110.11
0
LINE
8
BLACK
6
CONTINUOUS
10
57.4094
20
-110.11
11
57.4094
21
-110.11
0
LINE
8
BLACK
6
CONTINUOUS
10
57.4094
20
-110.11
11
57.4094
21
-110.11
0
LINE
8
BLACK
6
CONTINUOUS
10
57.4094
20
-110.11
11
57.316
21
-110.082
0
LINE
8
BLACK
6
CONTINUOUS
10
57.316
20
-110.082
11
57.316
21
-110.082
0
LINE
8
BLACK
6
CONTINUOUS
10
57.316
20
-110.082
11
57.316
21
-110.082
0
LINE
8
BLACK
6
CONTINUOUS
10
57.316
20
-110.082
11
57.316
21
-110.082
0
LINE
8
BLACK
6
CONTINUOUS
10
57.316
20
-110.082
11
57.3155
21
-110.082
0
LINE
8
BLACK
6
CONTINUOUS
10
57.3155
20
-110.082
11
57.3151
21
-110.082
0
LINE
8
BLACK
6
CONTINUOUS
10
57.3151
20
-110.082
11
57.3151
21
-110.082
0
LINE
8
BLACK
6
CONTINUOUS
10
57.3151
20
-110.082
11
57.3151
21
-110.082
0
LINE
8
BLACK
6
CONTINUOUS
10
57.3151
20
-110.082
11
57.3151
21
-110.082
0
LINE
8
BLACK
6
CONTINUOUS
10
57.3151
20
-110.082
11
57.229
21
-110.036
0
LINE
8
BLACK
6
CONTINUOUS
10
57.229
20
-110.036
11
57.229
21
-110.036
0
LINE
8
BLACK
6
CONTINUOUS
10
57.229
20
-110.036
11
57.2289
21
-110.036
0
LINE
8
BLACK
6
CONTINUOUS
10
57.2289
20
-110.036
11
57.2289
21
-110.036
0
LINE
8
BLACK
6
CONTINUOUS
10
57.2289
20
-110.036
11
57.2285
21
-110.035
0
LINE
8
BLACK
6
CONTINUOUS
10
57.2285
20
-110.035
11
57.2281
21
-110.035
0
LINE
8
BLACK
6
CONTINUOUS
10
57.2281
20
-110.035
11
57.1525
21
-109.974
0
LINE
8
BLACK
6
CONTINUOUS
10
57.1525
20
-109.974
11
57.1525
21
-109.974
0
LINE
8
BLACK
6
CONTINUOUS
10
57.1525
20
-109.974
11
57.1521
21
-109.973
0
LINE
8
BLACK
6
CONTINUOUS
10
57.1521
20
-109.973
11
57.1518
21
-109.973
0
LINE
8
BLACK
6
CONTINUOUS
10
57.1518
20
-109.973
11
57.0896
21
-109.898
0
LINE
8
BLACK
6
CONTINUOUS
10
57.0896
20
-109.898
11
57.0896
21
-109.898
0
LINE
8
BLACK
6
CONTINUOUS
10
57.0896
20
-109.898
11
57.0893
21
-109.897
0
LINE
8
BLACK
6
CONTINUOUS
10
57.0893
20
-109.897
11
57.0891
21
-109.897
0
LINE
8
BLACK
6
CONTINUOUS
10
57.0891
20
-109.897
11
57.0427
21
-109.811
0
LINE
8
BLACK
6
CONTINUOUS
10
57.0427
20
-109.811
11
57.0426
21
-109.811
0
LINE
8
BLACK
6
CONTINUOUS
10
57.0426
20
-109.811
11
57.0424
21
-109.811
0
LINE
8
BLACK
6
CONTINUOUS
10
57.0424
20
-109.811
11
57.0423
21
-109.81
0
LINE
8
BLACK
6
CONTINUOUS
10
57.0423
20
-109.81
11
57.0423
21
-109.81
0
LINE
8
BLACK
6
CONTINUOUS
10
57.0423
20
-109.81
11
57.0423
21
-109.81
0
LINE
8
BLACK
6
CONTINUOUS
10
57.0423
20
-109.81
11
57.0423
21
-109.81
0
LINE
8
BLACK
6
CONTINUOUS
10
57.0423
20
-109.81
11
57.0134
21
-109.717
0
LINE
8
BLACK
6
CONTINUOUS
10
57.0134
20
-109.717
11
57.0134
21
-109.717
0
LINE
8
BLACK
6
CONTINUOUS
10
57.0134
20
-109.717
11
57.0133
21
-109.716
0
LINE
8
BLACK
6
CONTINUOUS
10
57.0133
20
-109.716
11
57.0132
21
-109.716
0
LINE
8
BLACK
6
CONTINUOUS
10
57.0132
20
-109.716
11
57.003
21
-109.619
0
LINE
8
BLACK
6
CONTINUOUS
10
57.003
20
-109.619
11
57.003
21
-109.619
0
LINE
8
BLACK
6
CONTINUOUS
10
57.003
20
-109.619
11
57.003
21
-109.619
0
LINE
8
BLACK
6
CONTINUOUS
10
57.003
20
-109.619
11
57.003
21
-109.618
0
LINE
8
BLACK
6
CONTINUOUS
10
57.003
20
-109.618
11
57.003
21
-109.615
0
LINE
8
BLACK
6
CONTINUOUS
10
57.003
20
-109.615
11
57.003
21
-109.615
0
LINE
8
BLACK
6
CONTINUOUS
10
57.003
20
-109.615
11
57.003
21
-109.615
0
LINE
8
BLACK
6
CONTINUOUS
10
57.003
20
-109.615
11
57.003
21
-96.6238
0
LINE
8
BLACK
6
CONTINUOUS
10
57.003
20
-96.6238
11
57.003
21
-96.6235
0
LINE
8
BLACK
6
CONTINUOUS
10
57.003
20
-96.6235
11
57.0125
21
-96.5264
0
LINE
8
BLACK
6
CONTINUOUS
10
57.0125
20
-96.5264
11
57.0125
21
-96.5263
0
LINE
8
BLACK
6
CONTINUOUS
10
57.0125
20
-96.5263
11
57.0127
21
-96.5258
0
LINE
8
BLACK
6
CONTINUOUS
10
57.0127
20
-96.5258
11
57.0127
21
-96.5254
0
LINE
8
BLACK
6
CONTINUOUS
10
57.0127
20
-96.5254
11
57.0409
21
-96.432
0
LINE
8
BLACK
6
CONTINUOUS
10
57.0409
20
-96.432
11
57.0409
21
-96.432
0
LINE
8
BLACK
6
CONTINUOUS
10
57.0409
20
-96.432
11
57.0409
21
-96.432
0
LINE
8
BLACK
6
CONTINUOUS
10
57.0409
20
-96.432
11
57.041
21
-96.432
0
LINE
8
BLACK
6
CONTINUOUS
10
57.041
20
-96.432
11
57.0411
21
-96.4315
0
LINE
8
BLACK
6
CONTINUOUS
10
57.0411
20
-96.4315
11
57.0413
21
-96.4311
0
LINE
8
BLACK
6
CONTINUOUS
10
57.0413
20
-96.4311
11
57.0871
21
-96.345
0
LINE
8
BLACK
6
CONTINUOUS
10
57.0871
20
-96.345
11
57.0871
21
-96.345
0
LINE
8
BLACK
6
CONTINUOUS
10
57.0871
20
-96.345
11
57.0871
21
-96.3449
0
LINE
8
BLACK
6
CONTINUOUS
10
57.0871
20
-96.3449
11
57.0872
21
-96.3449
0
LINE
8
BLACK
6
CONTINUOUS
10
57.0872
20
-96.3449
11
57.0874
21
-96.3445
0
LINE
8
BLACK
6
CONTINUOUS
10
57.0874
20
-96.3445
11
57.0877
21
-96.3441
0
LINE
8
BLACK
6
CONTINUOUS
10
57.0877
20
-96.3441
11
57.1493
21
-96.2685
0
LINE
8
BLACK
6
CONTINUOUS
10
57.1493
20
-96.2685
11
57.1494
21
-96.2685
0
LINE
8
BLACK
6
CONTINUOUS
10
57.1494
20
-96.2685
11
57.1497
21
-96.2681
0
LINE
8
BLACK
6
CONTINUOUS
10
57.1497
20
-96.2681
11
57.15
21
-96.2678
0
LINE
8
BLACK
6
CONTINUOUS
10
57.15
20
-96.2678
11
57.2252
21
-96.2056
0
LINE
8
BLACK
6
CONTINUOUS
10
57.2252
20
-96.2056
11
57.2253
21
-96.2056
0
LINE
8
BLACK
6
CONTINUOUS
10
57.2253
20
-96.2056
11
57.2256
21
-96.2053
0
LINE
8
BLACK
6
CONTINUOUS
10
57.2256
20
-96.2053
11
57.226
21
-96.2051
0
LINE
8
BLACK
6
CONTINUOUS
10
57.226
20
-96.2051
11
57.3119
21
-96.1587
0
LINE
8
BLACK
6
CONTINUOUS
10
57.3119
20
-96.1587
11
57.3119
21
-96.1586
0
LINE
8
BLACK
6
CONTINUOUS
10
57.3119
20
-96.1586
11
57.3124
21
-96.1585
0
LINE
8
BLACK
6
CONTINUOUS
10
57.3124
20
-96.1585
11
57.3128
21
-96.1583
0
LINE
8
BLACK
6
CONTINUOUS
10
57.3128
20
-96.1583
11
57.406
21
-96.1294
0
LINE
8
BLACK
6
CONTINUOUS
10
57.406
20
-96.1294
11
57.406
21
-96.1294
0
LINE
8
BLACK
6
CONTINUOUS
10
57.406
20
-96.1294
11
57.406
21
-96.1294
0
LINE
8
BLACK
6
CONTINUOUS
10
57.406
20
-96.1294
11
57.406
21
-96.1294
0
LINE
8
BLACK
6
CONTINUOUS
10
57.406
20
-96.1294
11
57.4065
21
-96.1293
0
LINE
8
BLACK
6
CONTINUOUS
10
57.4065
20
-96.1293
11
57.4069
21
-96.1292
0
LINE
8
BLACK
6
CONTINUOUS
10
57.4069
20
-96.1292
11
57.504
21
-96.119
0
LINE
8
BLACK
6
CONTINUOUS
10
57.504
20
-96.119
11
57.5041
21
-96.119
0
LINE
8
BLACK
6
CONTINUOUS
10
57.5041
20
-96.119
11
57.5043
21
-96.119
0
LINE
8
BLACK
6
CONTINUOUS
10
57.5043
20
-96.119
11
57.5045
21
-96.119
0
LINE
8
BLACK
6
CONTINUOUS
10
57.5045
20
-96.119
11
57.5077
21
-96.119
0
LINE
8
BLACK
6
CONTINUOUS
10
57.5077
20
-96.119
11
57.5078
21
-96.119
0
LINE
8
BLACK
6
CONTINUOUS
10
57.5078
20
-96.119
11
70.5082
21
-96.119
0
LINE
8
BLACK
6
CONTINUOUS
10
70.5082
20
-96.119
11
70.5085
21
-96.119
0
LINE
8
BLACK
6
CONTINUOUS
10
70.5085
20
-96.119
11
70.5085
21
-96.119
0
LINE
8
BLACK
6
CONTINUOUS
10
70.5085
20
-96.119
11
70.6056
21
-96.1285
0
LINE
8
BLACK
6
CONTINUOUS
10
70.6056
20
-96.1285
11
70.6057
21
-96.1285
0
LINE
8
BLACK
6
CONTINUOUS
10
70.6057
20
-96.1285
11
70.6062
21
-96.1287
0
LINE
8
BLACK
6
CONTINUOUS
10
70.6062
20
-96.1287
11
70.6066
21
-96.1287
0
LINE
8
BLACK
6
CONTINUOUS
10
70.6066
20
-96.1287
11
70.6066
21
-96.1288
0
LINE
8
BLACK
6
CONTINUOUS
10
70.6066
20
-96.1288
11
70.6066
21
-96.1288
0
LINE
8
BLACK
6
CONTINUOUS
10
70.6066
20
-96.1288
11
70.6066
21
-96.1288
0
LINE
8
BLACK
6
CONTINUOUS
10
70.6066
20
-96.1288
11
70.7
21
-96.1569
0
LINE
8
BLACK
6
CONTINUOUS
10
70.7
20
-96.1569
11
70.7
21
-96.1569
0
LINE
8
BLACK
6
CONTINUOUS
10
70.7
20
-96.1569
11
70.7
21
-96.1569
0
LINE
8
BLACK
6
CONTINUOUS
10
70.7
20
-96.1569
11
70.7
21
-96.157
0
LINE
8
BLACK
6
CONTINUOUS
10
70.7
20
-96.157
11
70.7005
21
-96.1571
0
LINE
8
BLACK
6
CONTINUOUS
10
70.7005
20
-96.1571
11
70.7009
21
-96.1573
0
LINE
8
BLACK
6
CONTINUOUS
10
70.7009
20
-96.1573
11
70.7009
21
-96.1573
0
LINE
8
BLACK
6
CONTINUOUS
10
70.7009
20
-96.1573
11
70.7009
21
-96.1573
0
LINE
8
BLACK
6
CONTINUOUS
10
70.7009
20
-96.1573
11
70.7009
21
-96.1573
0
LINE
8
BLACK
6
CONTINUOUS
10
70.7009
20
-96.1573
11
70.787
21
-96.2031
0
LINE
8
BLACK
6
CONTINUOUS
10
70.787
20
-96.2031
11
70.787
21
-96.2031
0
LINE
8
BLACK
6
CONTINUOUS
10
70.787
20
-96.2031
11
70.7871
21
-96.2031
0
LINE
8
BLACK
6
CONTINUOUS
10
70.7871
20
-96.2031
11
70.7871
21
-96.2032
0
LINE
8
BLACK
6
CONTINUOUS
10
70.7871
20
-96.2032
11
70.7875
21
-96.2034
0
LINE
8
BLACK
6
CONTINUOUS
10
70.7875
20
-96.2034
11
70.7879
21
-96.2037
0
LINE
8
BLACK
6
CONTINUOUS
10
70.7879
20
-96.2037
11
70.8635
21
-96.2653
0
LINE
8
BLACK
6
CONTINUOUS
10
70.8635
20
-96.2653
11
70.8635
21
-96.2654
0
LINE
8
BLACK
6
CONTINUOUS
10
70.8635
20
-96.2654
11
70.8639
21
-96.2657
0
LINE
8
BLACK
6
CONTINUOUS
10
70.8639
20
-96.2657
11
70.8642
21
-96.266
0
LINE
8
BLACK
6
CONTINUOUS
10
70.8642
20
-96.266
11
70.9264
21
-96.3412
0
LINE
8
BLACK
6
CONTINUOUS
10
70.9264
20
-96.3412
11
70.9264
21
-96.3413
0
LINE
8
BLACK
6
CONTINUOUS
10
70.9264
20
-96.3413
11
70.9267
21
-96.3416
0
LINE
8
BLACK
6
CONTINUOUS
10
70.9267
20
-96.3416
11
70.9269
21
-96.342
0
LINE
8
BLACK
6
CONTINUOUS
10
70.9269
20
-96.342
11
70.9733
21
-96.4279
0
LINE
8
BLACK
6
CONTINUOUS
10
70.9733
20
-96.4279
11
70.9734
21
-96.4279
0
LINE
8
BLACK
6
CONTINUOUS
10
70.9734
20
-96.4279
11
70.9735
21
-96.4284
0
LINE
8
BLACK
6
CONTINUOUS
10
70.9735
20
-96.4284
11
70.9737
21
-96.4288
0
LINE
8
BLACK
6
CONTINUOUS
10
70.9737
20
-96.4288
11
71.0026
21
-96.522
0
LINE
8
BLACK
6
CONTINUOUS
10
71.0026
20
-96.522
11
71.0026
21
-96.522
0
LINE
8
BLACK
6
CONTINUOUS
10
71.0026
20
-96.522
11
71.0026
21
-96.522
0
LINE
8
BLACK
6
CONTINUOUS
10
71.0026
20
-96.522
11
71.0026
21
-96.522
0
LINE
8
BLACK
6
CONTINUOUS
10
71.0026
20
-96.522
11
71.0027
21
-96.5225
0
LINE
8
BLACK
6
CONTINUOUS
10
71.0027
20
-96.5225
11
71.0028
21
-96.5229
0
LINE
8
BLACK
6
CONTINUOUS
10
71.0028
20
-96.5229
11
71.013
21
-96.62
0
LINE
8
BLACK
6
CONTINUOUS
10
71.013
20
-96.62
11
71.013
21
-96.6201
0
LINE
8
BLACK
6
CONTINUOUS
10
71.013
20
-96.6201
11
71.013
21
-96.6203
0
LINE
8
BLACK
6
CONTINUOUS
10
71.013
20
-96.6203
11
71.013
21
-96.6205
0
LINE
8
BLACK
6
CONTINUOUS
10
71.013
20
-96.6205
11
71.013
21
-96.6237
0
LINE
8
BLACK
6
CONTINUOUS
10
71.013
20
-96.6237
11
71.013
21
-96.6238
0
LINE
8
BLACK
6
CONTINUOUS
10
71.013
20
-96.6238
11
71.013
21
-109.624
0
LINE
8
BLACK
6
CONTINUOUS
10
71.013
20
-109.624
11
71.013
21
-109.624
0
LINE
8
BLACK
6
CONTINUOUS
10
71.013
20
-109.624
11
71.013
21
-109.624
0
LINE
8
BLACK
6
CONTINUOUS
10
71.013
20
-109.624
11
71.0035
21
-109.722
0
LINE
8
BLACK
6
CONTINUOUS
10
71.0035
20
-109.722
11
71.0035
21
-109.722
0
LINE
8
BLACK
6
CONTINUOUS
10
71.0035
20
-109.722
11
71.0033
21
-109.722
0
LINE
8
BLACK
6
CONTINUOUS
10
71.0033
20
-109.722
11
71.0033
21
-109.723
0
LINE
8
BLACK
6
CONTINUOUS
10
71.0033
20
-109.723
11
70.9751
21
-109.816
0
LINE
8
BLACK
6
CONTINUOUS
10
70.9751
20
-109.816
11
70.9751
21
-109.816
0
LINE
8
BLACK
6
CONTINUOUS
10
70.9751
20
-109.816
11
70.9751
21
-109.816
0
LINE
8
BLACK
6
CONTINUOUS
10
70.9751
20
-109.816
11
70.975
21
-109.816
0
LINE
8
BLACK
6
CONTINUOUS
10
70.975
20
-109.816
11
70.9749
21
-109.816
0
LINE
8
BLACK
6
CONTINUOUS
10
70.9749
20
-109.816
11
70.9747
21
-109.817
0
LINE
8
BLACK
6
CONTINUOUS
10
70.9747
20
-109.817
11
70.9289
21
-109.903
0
LINE
8
BLACK
6
CONTINUOUS
10
70.9289
20
-109.903
11
70.9289
21
-109.903
0
LINE
8
BLACK
6
CONTINUOUS
10
70.9289
20
-109.903
11
70.9289
21
-109.903
0
LINE
8
BLACK
6
CONTINUOUS
10
70.9289
20
-109.903
11
70.9288
21
-109.903
0
LINE
8
BLACK
6
CONTINUOUS
10
70.9288
20
-109.903
11
70.9286
21
-109.904
0
LINE
8
BLACK
6
CONTINUOUS
10
70.9286
20
-109.904
11
70.9283
21
-109.904
0
LINE
8
BLACK
6
CONTINUOUS
10
70.9283
20
-109.904
11
70.8667
21
-109.979
0
LINE
8
BLACK
6
CONTINUOUS
10
70.8667
20
-109.979
11
70.8666
21
-109.98
0
LINE
8
BLACK
6
CONTINUOUS
10
70.8666
20
-109.98
11
70.8663
21
-109.98
0
LINE
8
BLACK
6
CONTINUOUS
10
70.8663
20
-109.98
11
70.866
21
-109.98
0
LINE
8
BLACK
6
CONTINUOUS
10
70.866
20
-109.98
11
70.7908
21
-110.042
0
LINE
8
BLACK
6
CONTINUOUS
10
70.7908
20
-110.042
11
70.7907
21
-110.042
0
LINE
8
BLACK
6
CONTINUOUS
10
70.7907
20
-110.042
11
70.7903
21
-110.043
0
LINE
8
BLACK
6
CONTINUOUS
10
70.7903
20
-110.043
11
70.79
21
-110.043
0
LINE
8
BLACK
6
CONTINUOUS
10
70.79
20
-110.043
11
70.7041
21
-110.089
0
LINE
8
BLACK
6
CONTINUOUS
10
70.7041
20
-110.089
11
70.7041
21
-110.089
0
LINE
8
BLACK
6
CONTINUOUS
10
70.7041
20
-110.089
11
70.7036
21
-110.09
0
LINE
8
BLACK
6
CONTINUOUS
10
70.7036
20
-110.09
11
70.7032
21
-110.09
0
LINE
8
BLACK
6
CONTINUOUS
10
70.7032
20
-110.09
11
70.7032
21
-110.09
0
LINE
8
BLACK
6
CONTINUOUS
10
70.7032
20
-110.09
11
70.7032
21
-110.09
0
LINE
8
BLACK
6
CONTINUOUS
10
70.7032
20
-110.09
11
70.7032
21
-110.09
0
LINE
8
BLACK
6
CONTINUOUS
10
70.7032
20
-110.09
11
70.61
21
-110.119
0
LINE
8
BLACK
6
CONTINUOUS
10
70.61
20
-110.119
11
70.61
21
-110.119
0
LINE
8
BLACK
6
CONTINUOUS
10
70.61
20
-110.119
11
70.61
21
-110.119
0
LINE
8
BLACK
6
CONTINUOUS
10
57.508
20
-96.129
11
57.5048
21
-96.129
0
LINE
8
BLACK
6
CONTINUOUS
10
57.5048
20
-96.129
11
57.4085
21
-96.1391
0
LINE
8
BLACK
6
CONTINUOUS
10
57.4085
20
-96.1391
11
57.3162
21
-96.1677
0
LINE
8
BLACK
6
CONTINUOUS
10
57.3162
20
-96.1677
11
57.2312
21
-96.2136
0
LINE
8
BLACK
6
CONTINUOUS
10
57.2312
20
-96.2136
11
57.1568
21
-96.2752
0
LINE
8
BLACK
6
CONTINUOUS
10
57.1568
20
-96.2752
11
57.0957
21
-96.3501
0
LINE
8
BLACK
6
CONTINUOUS
10
57.0957
20
-96.3501
11
57.0504
21
-96.4354
0
LINE
8
BLACK
6
CONTINUOUS
10
57.0504
20
-96.4354
11
57.0225
21
-96.5279
0
LINE
8
BLACK
6
CONTINUOUS
10
57.0225
20
-96.5279
11
57.013
21
-96.6242
0
LINE
8
BLACK
6
CONTINUOUS
10
57.013
20
-96.6242
11
57.013
21
-109.615
0
LINE
8
BLACK
6
CONTINUOUS
10
57.013
20
-109.615
11
57.013
21
-109.618
0
LINE
8
BLACK
6
CONTINUOUS
10
57.013
20
-109.618
11
57.0231
21
-109.714
0
LINE
8
BLACK
6
CONTINUOUS
10
57.0231
20
-109.714
11
57.0517
21
-109.807
0
LINE
8
BLACK
6
CONTINUOUS
10
57.0517
20
-109.807
11
57.0976
21
-109.892
0
LINE
8
BLACK
6
CONTINUOUS
10
57.0976
20
-109.892
11
57.1592
21
-109.966
0
LINE
8
BLACK
6
CONTINUOUS
10
57.1592
20
-109.966
11
57.2341
21
-110.027
0
LINE
8
BLACK
6
CONTINUOUS
10
57.2341
20
-110.027
11
57.3194
21
-110.073
0
LINE
8
BLACK
6
CONTINUOUS
10
57.3194
20
-110.073
11
57.4119
21
-110.1
0
LINE
8
BLACK
6
CONTINUOUS
10
57.4119
20
-110.1
11
57.5082
21
-110.11
0
LINE
8
BLACK
6
CONTINUOUS
10
57.5082
20
-110.11
11
70.508
21
-110.119
0
LINE
8
BLACK
6
CONTINUOUS
10
70.508
20
-110.119
11
70.5112
21
-110.119
0
LINE
8
BLACK
6
CONTINUOUS
10
70.5112
20
-110.119
11
70.6075
21
-110.109
0
LINE
8
BLACK
6
CONTINUOUS
10
70.6075
20
-110.109
11
70.6998
21
-110.08
0
LINE
8
BLACK
6
CONTINUOUS
10
70.6998
20
-110.08
11
70.7848
21
-110.034
0
LINE
8
BLACK
6
CONTINUOUS
10
70.7848
20
-110.034
11
70.8592
21
-109.973
0
LINE
8
BLACK
6
CONTINUOUS
10
70.8592
20
-109.973
11
70.9203
21
-109.898
0
LINE
8
BLACK
6
CONTINUOUS
10
70.9203
20
-109.898
11
70.9656
21
-109.813
0
LINE
8
BLACK
6
CONTINUOUS
10
70.9656
20
-109.813
11
70.9935
21
-109.72
0
LINE
8
BLACK
6
CONTINUOUS
10
70.9935
20
-109.72
11
71.003
21
-109.624
0
LINE
8
BLACK
6
CONTINUOUS
10
71.003
20
-109.624
11
71.003
21
-96.624
0
LINE
8
BLACK
6
CONTINUOUS
10
71.003
20
-96.624
11
71.003
21
-96.6208
0
LINE
8
BLACK
6
CONTINUOUS
10
71.003
20
-96.6208
11
70.9929
21
-96.5245
0
LINE
8
BLACK
6
CONTINUOUS
10
70.9929
20
-96.5245
11
70.9643
21
-96.4322
0
LINE
8
BLACK
6
CONTINUOUS
10
70.9643
20
-96.4322
11
70.9184
21
-96.3472
0
LINE
8
BLACK
6
CONTINUOUS
10
70.9184
20
-96.3472
11
70.8568
21
-96.2728
0
LINE
8
BLACK
6
CONTINUOUS
10
70.8568
20
-96.2728
11
70.7819
21
-96.2117
0
LINE
8
BLACK
6
CONTINUOUS
10
70.7819
20
-96.2117
11
70.6966
21
-96.1664
0
LINE
8
BLACK
6
CONTINUOUS
10
70.6966
20
-96.1664
11
70.6041
21
-96.1385
0
LINE
8
BLACK
6
CONTINUOUS
10
70.6041
20
-96.1385
11
70.5078
21
-96.129
0
LINE
8
BLACK
6
CONTINUOUS
10
70.5078
20
-96.129
11
57.508
21
-96.129
0
LINE
8
BLACK
6
CONTINUOUS
10
108.602
20
-108.463
11
108.601
21
-108.463
0
LINE
8
BLACK
6
CONTINUOUS
10
108.601
20
-108.463
11
108.601
21
-108.463
0
LINE
8
BLACK
6
CONTINUOUS
10
108.601
20
-108.463
11
108.504
21
-108.473
0
LINE
8
BLACK
6
CONTINUOUS
10
108.504
20
-108.473
11
108.504
21
-108.473
0
LINE
8
BLACK
6
CONTINUOUS
10
108.504
20
-108.473
11
108.504
21
-108.473
0
LINE
8
BLACK
6
CONTINUOUS
10
108.504
20
-108.473
11
108.504
21
-108.473
0
LINE
8
BLACK
6
CONTINUOUS
10
108.504
20
-108.473
11
108.5
21
-108.473
0
LINE
8
BLACK
6
CONTINUOUS
10
108.5
20
-108.473
11
108.5
21
-108.473
0
LINE
8
BLACK
6
CONTINUOUS
10
108.5
20
-108.473
11
108.5
21
-108.473
0
LINE
8
BLACK
6
CONTINUOUS
10
108.5
20
-108.473
11
95.4998
21
-108.464
0
LINE
8
BLACK
6
CONTINUOUS
10
95.4998
20
-108.464
11
95.4995
21
-108.464
0
LINE
8
BLACK
6
CONTINUOUS
10
95.4995
20
-108.464
11
95.4995
21
-108.464
0
LINE
8
BLACK
6
CONTINUOUS
10
95.4995
20
-108.464
11
95.4024
21
-108.454
0
LINE
8
BLACK
6
CONTINUOUS
10
95.4024
20
-108.454
11
95.4023
21
-108.454
0
LINE
8
BLACK
6
CONTINUOUS
10
95.4023
20
-108.454
11
95.4018
21
-108.454
0
LINE
8
BLACK
6
CONTINUOUS
10
95.4018
20
-108.454
11
95.4014
21
-108.454
0
LINE
8
BLACK
6
CONTINUOUS
10
95.4014
20
-108.454
11
95.4014
21
-108.454
0
LINE
8
BLACK
6
CONTINUOUS
10
95.4014
20
-108.454
11
95.4014
21
-108.454
0
LINE
8
BLACK
6
CONTINUOUS
10
95.4014
20
-108.454
11
95.4014
21
-108.454
0
LINE
8
BLACK
6
CONTINUOUS
10
95.4014
20
-108.454
11
95.308
21
-108.426
0
LINE
8
BLACK
6
CONTINUOUS
10
95.308
20
-108.426
11
95.308
21
-108.426
0
LINE
8
BLACK
6
CONTINUOUS
10
95.308
20
-108.426
11
95.308
21
-108.426
0
LINE
8
BLACK
6
CONTINUOUS
10
95.308
20
-108.426
11
95.308
21
-108.426
0
LINE
8
BLACK
6
CONTINUOUS
10
95.308
20
-108.426
11
95.3075
21
-108.426
0
LINE
8
BLACK
6
CONTINUOUS
10
95.3075
20
-108.426
11
95.3071
21
-108.426
0
LINE
8
BLACK
6
CONTINUOUS
10
95.3071
20
-108.426
11
95.3071
21
-108.426
0
LINE
8
BLACK
6
CONTINUOUS
10
95.3071
20
-108.426
11
95.3071
21
-108.426
0
LINE
8
BLACK
6
CONTINUOUS
10
95.3071
20
-108.426
11
95.3071
21
-108.426
0
LINE
8
BLACK
6
CONTINUOUS
10
95.3071
20
-108.426
11
95.221
21
-108.38
0
LINE
8
BLACK
6
CONTINUOUS
10
95.221
20
-108.38
11
95.221
21
-108.38
0
LINE
8
BLACK
6
CONTINUOUS
10
95.221
20
-108.38
11
95.2209
21
-108.38
0
LINE
8
BLACK
6
CONTINUOUS
10
95.2209
20
-108.38
11
95.2209
21
-108.38
0
LINE
8
BLACK
6
CONTINUOUS
10
95.2209
20
-108.38
11
95.2205
21
-108.379
0
LINE
8
BLACK
6
CONTINUOUS
10
95.2205
20
-108.379
11
95.2201
21
-108.379
0
LINE
8
BLACK
6
CONTINUOUS
10
95.2201
20
-108.379
11
95.1445
21
-108.318
0
LINE
8
BLACK
6
CONTINUOUS
10
95.1445
20
-108.318
11
95.1445
21
-108.318
0
LINE
8
BLACK
6
CONTINUOUS
10
95.1445
20
-108.318
11
95.1441
21
-108.317
0
LINE
8
BLACK
6
CONTINUOUS
10
95.1441
20
-108.317
11
95.1438
21
-108.317
0
LINE
8
BLACK
6
CONTINUOUS
10
95.1438
20
-108.317
11
95.0816
21
-108.242
0
LINE
8
BLACK
6
CONTINUOUS
10
95.0816
20
-108.242
11
95.0816
21
-108.242
0
LINE
8
BLACK
6
CONTINUOUS
10
95.0816
20
-108.242
11
95.0813
21
-108.241
0
LINE
8
BLACK
6
CONTINUOUS
10
95.0813
20
-108.241
11
95.0811
21
-108.241
0
LINE
8
BLACK
6
CONTINUOUS
10
95.0811
20
-108.241
11
95.0347
21
-108.155
0
LINE
8
BLACK
6
CONTINUOUS
10
95.0347
20
-108.155
11
95.0346
21
-108.155
0
LINE
8
BLACK
6
CONTINUOUS
10
95.0346
20
-108.155
11
95.0344
21
-108.155
0
LINE
8
BLACK
6
CONTINUOUS
10
95.0344
20
-108.155
11
95.0343
21
-108.154
0
LINE
8
BLACK
6
CONTINUOUS
10
95.0343
20
-108.154
11
95.0343
21
-108.154
0
LINE
8
BLACK
6
CONTINUOUS
10
95.0343
20
-108.154
11
95.0343
21
-108.154
0
LINE
8
BLACK
6
CONTINUOUS
10
95.0343
20
-108.154
11
95.0343
21
-108.154
0
LINE
8
BLACK
6
CONTINUOUS
10
95.0343
20
-108.154
11
95.0054
21
-108.061
0
LINE
8
BLACK
6
CONTINUOUS
10
95.0054
20
-108.061
11
95.0054
21
-108.061
0
LINE
8
BLACK
6
CONTINUOUS
10
95.0054
20
-108.061
11
95.0053
21
-108.06
0
LINE
8
BLACK
6
CONTINUOUS
10
95.0053
20
-108.06
11
95.0052
21
-108.06
0
LINE
8
BLACK
6
CONTINUOUS
10
95.0052
20
-108.06
11
94.995
21
-107.963
0
LINE
8
BLACK
6
CONTINUOUS
10
94.995
20
-107.963
11
94.995
21
-107.963
0
LINE
8
BLACK
6
CONTINUOUS
10
94.995
20
-107.963
11
94.995
21
-107.963
0
LINE
8
BLACK
6
CONTINUOUS
10
94.995
20
-107.963
11
94.995
21
-107.962
0
LINE
8
BLACK
6
CONTINUOUS
10
94.995
20
-107.962
11
94.995
21
-107.959
0
LINE
8
BLACK
6
CONTINUOUS
10
94.995
20
-107.959
11
94.995
21
-107.959
0
LINE
8
BLACK
6
CONTINUOUS
10
94.995
20
-107.959
11
94.995
21
-107.959
0
LINE
8
BLACK
6
CONTINUOUS
10
94.995
20
-107.959
11
94.995
21
-94.9678
0
LINE
8
BLACK
6
CONTINUOUS
10
94.995
20
-94.9678
11
94.995
21
-94.9675
0
LINE
8
BLACK
6
CONTINUOUS
10
94.995
20
-94.9675
11
95.0045
21
-94.8704
0
LINE
8
BLACK
6
CONTINUOUS
10
95.0045
20
-94.8704
11
95.0045
21
-94.8703
0
LINE
8
BLACK
6
CONTINUOUS
10
95.0045
20
-94.8703
11
95.0047
21
-94.8698
0
LINE
8
BLACK
6
CONTINUOUS
10
95.0047
20
-94.8698
11
95.0047
21
-94.8694
0
LINE
8
BLACK
6
CONTINUOUS
10
95.0047
20
-94.8694
11
95.0329
21
-94.776
0
LINE
8
BLACK
6
CONTINUOUS
10
95.0329
20
-94.776
11
95.0329
21
-94.776
0
LINE
8
BLACK
6
CONTINUOUS
10
95.0329
20
-94.776
11
95.0329
21
-94.776
0
LINE
8
BLACK
6
CONTINUOUS
10
95.0329
20
-94.776
11
95.033
21
-94.776
0
LINE
8
BLACK
6
CONTINUOUS
10
95.033
20
-94.776
11
95.0331
21
-94.7755
0
LINE
8
BLACK
6
CONTINUOUS
10
95.0331
20
-94.7755
11
95.0333
21
-94.7751
0
LINE
8
BLACK
6
CONTINUOUS
10
95.0333
20
-94.7751
11
95.0791
21
-94.689
0
LINE
8
BLACK
6
CONTINUOUS
10
95.0791
20
-94.689
11
95.0791
21
-94.689
0
LINE
8
BLACK
6
CONTINUOUS
10
95.0791
20
-94.689
11
95.0791
21
-94.6889
0
LINE
8
BLACK
6
CONTINUOUS
10
95.0791
20
-94.6889
11
95.0792
21
-94.6889
0
LINE
8
BLACK
6
CONTINUOUS
10
95.0792
20
-94.6889
11
95.0794
21
-94.6885
0
LINE
8
BLACK
6
CONTINUOUS
10
95.0794
20
-94.6885
11
95.0797
21
-94.6881
0
LINE
8
BLACK
6
CONTINUOUS
10
95.0797
20
-94.6881
11
95.1413
21
-94.6125
0
LINE
8
BLACK
6
CONTINUOUS
10
95.1413
20
-94.6125
11
95.1414
21
-94.6125
0
LINE
8
BLACK
6
CONTINUOUS
10
95.1414
20
-94.6125
11
95.1417
21
-94.6121
0
LINE
8
BLACK
6
CONTINUOUS
10
95.1417
20
-94.6121
11
95.142
21
-94.6118
0
LINE
8
BLACK
6
CONTINUOUS
10
95.142
20
-94.6118
11
95.2172
21
-94.5496
0
LINE
8
BLACK
6
CONTINUOUS
10
95.2172
20
-94.5496
11
95.2173
21
-94.5496
0
LINE
8
BLACK
6
CONTINUOUS
10
95.2173
20
-94.5496
11
95.2176
21
-94.5493
0
LINE
8
BLACK
6
CONTINUOUS
10
95.2176
20
-94.5493
11
95.218
21
-94.5491
0
LINE
8
BLACK
6
CONTINUOUS
10
95.218
20
-94.5491
11
95.3039
21
-94.5027
0
LINE
8
BLACK
6
CONTINUOUS
10
95.3039
20
-94.5027
11
95.3039
21
-94.5026
0
LINE
8
BLACK
6
CONTINUOUS
10
95.3039
20
-94.5026
11
95.3044
21
-94.5025
0
LINE
8
BLACK
6
CONTINUOUS
10
95.3044
20
-94.5025
11
95.3048
21
-94.5023
0
LINE
8
BLACK
6
CONTINUOUS
10
95.3048
20
-94.5023
11
95.398
21
-94.4734
0
LINE
8
BLACK
6
CONTINUOUS
10
95.398
20
-94.4734
11
95.398
21
-94.4734
0
LINE
8
BLACK
6
CONTINUOUS
10
95.398
20
-94.4734
11
95.398
21
-94.4734
0
LINE
8
BLACK
6
CONTINUOUS
10
95.398
20
-94.4734
11
95.398
21
-94.4734
0
LINE
8
BLACK
6
CONTINUOUS
10
95.398
20
-94.4734
11
95.3985
21
-94.4733
0
LINE
8
BLACK
6
CONTINUOUS
10
95.3985
20
-94.4733
11
95.3989
21
-94.4732
0
LINE
8
BLACK
6
CONTINUOUS
10
95.3989
20
-94.4732
11
95.496
21
-94.463
0
LINE
8
BLACK
6
CONTINUOUS
10
95.496
20
-94.463
11
95.4961
21
-94.463
0
LINE
8
BLACK
6
CONTINUOUS
10
95.4961
20
-94.463
11
95.4963
21
-94.463
0
LINE
8
BLACK
6
CONTINUOUS
10
95.4963
20
-94.463
11
95.4965
21
-94.463
0
LINE
8
BLACK
6
CONTINUOUS
10
95.4965
20
-94.463
11
95.4997
21
-94.463
0
LINE
8
BLACK
6
CONTINUOUS
10
95.4997
20
-94.463
11
95.4998
21
-94.463
0
LINE
8
BLACK
6
CONTINUOUS
10
95.4998
20
-94.463
11
108.5
21
-94.463
0
LINE
8
BLACK
6
CONTINUOUS
10
108.5
20
-94.463
11
108.5
21
-94.463
0
LINE
8
BLACK
6
CONTINUOUS
10
108.5
20
-94.463
11
108.5
21
-94.463
0
LINE
8
BLACK
6
CONTINUOUS
10
108.5
20
-94.463
11
108.598
21
-94.4725
0
LINE
8
BLACK
6
CONTINUOUS
10
108.598
20
-94.4725
11
108.598
21
-94.4725
0
LINE
8
BLACK
6
CONTINUOUS
10
108.598
20
-94.4725
11
108.598
21
-94.4727
0
LINE
8
BLACK
6
CONTINUOUS
10
108.598
20
-94.4727
11
108.599
21
-94.4727
0
LINE
8
BLACK
6
CONTINUOUS
10
108.599
20
-94.4727
11
108.599
21
-94.4728
0
LINE
8
BLACK
6
CONTINUOUS
10
108.599
20
-94.4728
11
108.599
21
-94.4728
0
LINE
8
BLACK
6
CONTINUOUS
10
108.599
20
-94.4728
11
108.599
21
-94.4728
0
LINE
8
BLACK
6
CONTINUOUS
10
108.599
20
-94.4728
11
108.692
21
-94.5009
0
LINE
8
BLACK
6
CONTINUOUS
10
108.692
20
-94.5009
11
108.692
21
-94.5009
0
LINE
8
BLACK
6
CONTINUOUS
10
108.692
20
-94.5009
11
108.692
21
-94.5009
0
LINE
8
BLACK
6
CONTINUOUS
10
108.692
20
-94.5009
11
108.692
21
-94.501
0
LINE
8
BLACK
6
CONTINUOUS
10
108.692
20
-94.501
11
108.692
21
-94.5011
0
LINE
8
BLACK
6
CONTINUOUS
10
108.692
20
-94.5011
11
108.693
21
-94.5013
0
LINE
8
BLACK
6
CONTINUOUS
10
108.693
20
-94.5013
11
108.693
21
-94.5013
0
LINE
8
BLACK
6
CONTINUOUS
10
108.693
20
-94.5013
11
108.693
21
-94.5013
0
LINE
8
BLACK
6
CONTINUOUS
10
108.693
20
-94.5013
11
108.693
21
-94.5013
0
LINE
8
BLACK
6
CONTINUOUS
10
108.693
20
-94.5013
11
108.779
21
-94.5471
0
LINE
8
BLACK
6
CONTINUOUS
10
108.779
20
-94.5471
11
108.779
21
-94.5471
0
LINE
8
BLACK
6
CONTINUOUS
10
108.779
20
-94.5471
11
108.779
21
-94.5471
0
LINE
8
BLACK
6
CONTINUOUS
10
108.779
20
-94.5471
11
108.779
21
-94.5472
0
LINE
8
BLACK
6
CONTINUOUS
10
108.779
20
-94.5472
11
108.779
21
-94.5474
0
LINE
8
BLACK
6
CONTINUOUS
10
108.779
20
-94.5474
11
108.78
21
-94.5477
0
LINE
8
BLACK
6
CONTINUOUS
10
108.78
20
-94.5477
11
108.855
21
-94.6093
0
LINE
8
BLACK
6
CONTINUOUS
10
108.855
20
-94.6093
11
108.856
21
-94.6094
0
LINE
8
BLACK
6
CONTINUOUS
10
108.856
20
-94.6094
11
108.856
21
-94.6097
0
LINE
8
BLACK
6
CONTINUOUS
10
108.856
20
-94.6097
11
108.856
21
-94.61
0
LINE
8
BLACK
6
CONTINUOUS
10
108.856
20
-94.61
11
108.918
21
-94.6852
0
LINE
8
BLACK
6
CONTINUOUS
10
108.918
20
-94.6852
11
108.918
21
-94.6853
0
LINE
8
BLACK
6
CONTINUOUS
10
108.918
20
-94.6853
11
108.919
21
-94.6856
0
LINE
8
BLACK
6
CONTINUOUS
10
108.919
20
-94.6856
11
108.919
21
-94.686
0
LINE
8
BLACK
6
CONTINUOUS
10
108.919
20
-94.686
11
108.965
21
-94.7719
0
LINE
8
BLACK
6
CONTINUOUS
10
108.965
20
-94.7719
11
108.965
21
-94.7719
0
LINE
8
BLACK
6
CONTINUOUS
10
108.965
20
-94.7719
11
108.966
21
-94.7724
0
LINE
8
BLACK
6
CONTINUOUS
10
108.966
20
-94.7724
11
108.966
21
-94.7728
0
LINE
8
BLACK
6
CONTINUOUS
10
108.966
20
-94.7728
11
108.995
21
-94.866
0
LINE
8
BLACK
6
CONTINUOUS
10
108.995
20
-94.866
11
108.995
21
-94.866
0
LINE
8
BLACK
6
CONTINUOUS
10
108.995
20
-94.866
11
108.995
21
-94.866
0
LINE
8
BLACK
6
CONTINUOUS
10
108.995
20
-94.866
11
108.995
21
-94.866
0
LINE
8
BLACK
6
CONTINUOUS
10
108.995
20
-94.866
11
108.995
21
-94.8665
0
LINE
8
BLACK
6
CONTINUOUS
10
108.995
20
-94.8665
11
108.995
21
-94.8669
0
LINE
8
BLACK
6
CONTINUOUS
10
108.995
20
-94.8669
11
109.005
21
-94.964
0
LINE
8
BLACK
6
CONTINUOUS
10
109.005
20
-94.964
11
109.005
21
-94.9641
0
LINE
8
BLACK
6
CONTINUOUS
10
109.005
20
-94.9641
11
109.005
21
-94.9643
0
LINE
8
BLACK
6
CONTINUOUS
10
109.005
20
-94.9643
11
109.005
21
-94.9645
0
LINE
8
BLACK
6
CONTINUOUS
10
109.005
20
-94.9645
11
109.005
21
-94.9677
0
LINE
8
BLACK
6
CONTINUOUS
10
109.005
20
-94.9677
11
109.005
21
-94.9678
0
LINE
8
BLACK
6
CONTINUOUS
10
109.005
20
-94.9678
11
109.005
21
-107.968
0
LINE
8
BLACK
6
CONTINUOUS
10
109.005
20
-107.968
11
109.005
21
-107.968
0
LINE
8
BLACK
6
CONTINUOUS
10
109.005
20
-107.968
11
109.005
21
-107.968
0
LINE
8
BLACK
6
CONTINUOUS
10
109.005
20
-107.968
11
108.995
21
-108.066
0
LINE
8
BLACK
6
CONTINUOUS
10
108.995
20
-108.066
11
108.995
21
-108.066
0
LINE
8
BLACK
6
CONTINUOUS
10
108.995
20
-108.066
11
108.995
21
-108.066
0
LINE
8
BLACK
6
CONTINUOUS
10
108.995
20
-108.066
11
108.995
21
-108.067
0
LINE
8
BLACK
6
CONTINUOUS
10
108.995
20
-108.067
11
108.967
21
-108.16
0
LINE
8
BLACK
6
CONTINUOUS
10
108.967
20
-108.16
11
108.967
21
-108.16
0
LINE
8
BLACK
6
CONTINUOUS
10
108.967
20
-108.16
11
108.967
21
-108.16
0
LINE
8
BLACK
6
CONTINUOUS
10
108.967
20
-108.16
11
108.967
21
-108.16
0
LINE
8
BLACK
6
CONTINUOUS
10
108.967
20
-108.16
11
108.967
21
-108.16
0
LINE
8
BLACK
6
CONTINUOUS
10
108.967
20
-108.16
11
108.967
21
-108.161
0
LINE
8
BLACK
6
CONTINUOUS
10
108.967
20
-108.161
11
108.921
21
-108.247
0
LINE
8
BLACK
6
CONTINUOUS
10
108.921
20
-108.247
11
108.921
21
-108.247
0
LINE
8
BLACK
6
CONTINUOUS
10
108.921
20
-108.247
11
108.921
21
-108.247
0
LINE
8
BLACK
6
CONTINUOUS
10
108.921
20
-108.247
11
108.921
21
-108.247
0
LINE
8
BLACK
6
CONTINUOUS
10
108.921
20
-108.247
11
108.921
21
-108.248
0
LINE
8
BLACK
6
CONTINUOUS
10
108.921
20
-108.248
11
108.92
21
-108.248
0
LINE
8
BLACK
6
CONTINUOUS
10
108.92
20
-108.248
11
108.859
21
-108.323
0
LINE
8
BLACK
6
CONTINUOUS
10
108.859
20
-108.323
11
108.859
21
-108.324
0
LINE
8
BLACK
6
CONTINUOUS
10
108.859
20
-108.324
11
108.858
21
-108.324
0
LINE
8
BLACK
6
CONTINUOUS
10
108.858
20
-108.324
11
108.858
21
-108.324
0
LINE
8
BLACK
6
CONTINUOUS
10
108.858
20
-108.324
11
108.783
21
-108.386
0
LINE
8
BLACK
6
CONTINUOUS
10
108.783
20
-108.386
11
108.783
21
-108.386
0
LINE
8
BLACK
6
CONTINUOUS
10
108.783
20
-108.386
11
108.782
21
-108.387
0
LINE
8
BLACK
6
CONTINUOUS
10
108.782
20
-108.387
11
108.782
21
-108.387
0
LINE
8
BLACK
6
CONTINUOUS
10
108.782
20
-108.387
11
108.696
21
-108.433
0
LINE
8
BLACK
6
CONTINUOUS
10
108.696
20
-108.433
11
108.696
21
-108.433
0
LINE
8
BLACK
6
CONTINUOUS
10
108.696
20
-108.433
11
108.696
21
-108.434
0
LINE
8
BLACK
6
CONTINUOUS
10
108.696
20
-108.434
11
108.695
21
-108.434
0
LINE
8
BLACK
6
CONTINUOUS
10
108.695
20
-108.434
11
108.695
21
-108.434
0
LINE
8
BLACK
6
CONTINUOUS
10
108.695
20
-108.434
11
108.695
21
-108.434
0
LINE
8
BLACK
6
CONTINUOUS
10
108.695
20
-108.434
11
108.695
21
-108.434
0
LINE
8
BLACK
6
CONTINUOUS
10
108.695
20
-108.434
11
108.602
21
-108.463
0
LINE
8
BLACK
6
CONTINUOUS
10
108.602
20
-108.463
11
108.602
21
-108.463
0
LINE
8
BLACK
6
CONTINUOUS
10
108.602
20
-108.463
11
108.602
21
-108.463
0
LINE
8
BLACK
6
CONTINUOUS
10
95.5
20
-94.473
11
95.4968
21
-94.473
0
LINE
8
BLACK
6
CONTINUOUS
10
95.4968
20
-94.473
11
95.4005
21
-94.4831
0
LINE
8
BLACK
6
CONTINUOUS
10
95.4005
20
-94.4831
11
95.3082
21
-94.5117
0
LINE
8
BLACK
6
CONTINUOUS
10
95.3082
20
-94.5117
11
95.2232
21
-94.5576
0
LINE
8
BLACK
6
CONTINUOUS
10
95.2232
20
-94.5576
11
95.1488
21
-94.6192
0
LINE
8
BLACK
6
CONTINUOUS
10
95.1488
20
-94.6192
11
95.0877
21
-94.6941
0
LINE
8
BLACK
6
CONTINUOUS
10
95.0877
20
-94.6941
11
95.0424
21
-94.7794
0
LINE
8
BLACK
6
CONTINUOUS
10
95.0424
20
-94.7794
11
95.0145
21
-94.8719
0
LINE
8
BLACK
6
CONTINUOUS
10
95.0145
20
-94.8719
11
95.005
21
-94.9682
0
LINE
8
BLACK
6
CONTINUOUS
10
95.005
20
-94.9682
11
95.005
21
-107.959
0
LINE
8
BLACK
6
CONTINUOUS
10
95.005
20
-107.959
11
95.005
21
-107.962
0
LINE
8
BLACK
6
CONTINUOUS
10
95.005
20
-107.962
11
95.0151
21
-108.058
0
LINE
8
BLACK
6
CONTINUOUS
10
95.0151
20
-108.058
11
95.0437
21
-108.151
0
LINE
8
BLACK
6
CONTINUOUS
10
95.0437
20
-108.151
11
95.0896
21
-108.236
0
LINE
8
BLACK
6
CONTINUOUS
10
95.0896
20
-108.236
11
95.1512
21
-108.31
0
LINE
8
BLACK
6
CONTINUOUS
10
95.1512
20
-108.31
11
95.2261
21
-108.371
0
LINE
8
BLACK
6
CONTINUOUS
10
95.2261
20
-108.371
11
95.3114
21
-108.417
0
LINE
8
BLACK
6
CONTINUOUS
10
95.3114
20
-108.417
11
95.4039
21
-108.444
0
LINE
8
BLACK
6
CONTINUOUS
10
95.4039
20
-108.444
11
95.5002
21
-108.454
0
LINE
8
BLACK
6
CONTINUOUS
10
95.5002
20
-108.454
11
108.5
21
-108.463
0
LINE
8
BLACK
6
CONTINUOUS
10
108.5
20
-108.463
11
108.503
21
-108.463
0
LINE
8
BLACK
6
CONTINUOUS
10
108.503
20
-108.463
11
108.6
21
-108.453
0
LINE
8
BLACK
6
CONTINUOUS
10
108.6
20
-108.453
11
108.692
21
-108.424
0
LINE
8
BLACK
6
CONTINUOUS
10
108.692
20
-108.424
11
108.777
21
-108.378
0
LINE
8
BLACK
6
CONTINUOUS
10
108.777
20
-108.378
11
108.851
21
-108.317
0
LINE
8
BLACK
6
CONTINUOUS
10
108.851
20
-108.317
11
108.912
21
-108.242
0
LINE
8
BLACK
6
CONTINUOUS
10
108.912
20
-108.242
11
108.958
21
-108.157
0
LINE
8
BLACK
6
CONTINUOUS
10
108.958
20
-108.157
11
108.986
21
-108.064
0
LINE
8
BLACK
6
CONTINUOUS
10
108.986
20
-108.064
11
108.995
21
-107.968
0
LINE
8
BLACK
6
CONTINUOUS
10
108.995
20
-107.968
11
108.995
21
-94.968
0
LINE
8
BLACK
6
CONTINUOUS
10
108.995
20
-94.968
11
108.995
21
-94.9648
0
LINE
8
BLACK
6
CONTINUOUS
10
108.995
20
-94.9648
11
108.985
21
-94.8685
0
LINE
8
BLACK
6
CONTINUOUS
10
108.985
20
-94.8685
11
108.956
21
-94.7762
0
LINE
8
BLACK
6
CONTINUOUS
10
108.956
20
-94.7762
11
108.91
21
-94.6912
0
LINE
8
BLACK
6
CONTINUOUS
10
108.91
20
-94.6912
11
108.849
21
-94.6168
0
LINE
8
BLACK
6
CONTINUOUS
10
108.849
20
-94.6168
11
108.774
21
-94.5557
0
LINE
8
BLACK
6
CONTINUOUS
10
108.774
20
-94.5557
11
108.689
21
-94.5104
0
LINE
8
BLACK
6
CONTINUOUS
10
108.689
20
-94.5104
11
108.596
21
-94.4825
0
LINE
8
BLACK
6
CONTINUOUS
10
108.596
20
-94.4825
11
108.5
21
-94.473
0
LINE
8
BLACK
6
CONTINUOUS
10
108.5
20
-94.473
11
95.5
21
-94.473
0
LINE
8
BLACK
6
CONTINUOUS
10
89.602
20
-103.891
11
89.6015
21
-103.891
0
LINE
8
BLACK
6
CONTINUOUS
10
89.6015
20
-103.891
11
89.6011
21
-103.891
0
LINE
8
BLACK
6
CONTINUOUS
10
89.6011
20
-103.891
11
89.504
21
-103.901
0
LINE
8
BLACK
6
CONTINUOUS
10
89.504
20
-103.901
11
89.5039
21
-103.901
0
LINE
8
BLACK
6
CONTINUOUS
10
89.5039
20
-103.901
11
89.5037
21
-103.901
0
LINE
8
BLACK
6
CONTINUOUS
10
89.5037
20
-103.901
11
89.5035
21
-103.901
0
LINE
8
BLACK
6
CONTINUOUS
10
89.5035
20
-103.901
11
89.5002
21
-103.901
0
LINE
8
BLACK
6
CONTINUOUS
10
89.5002
20
-103.901
11
89.5002
21
-103.901
0
LINE
8
BLACK
6
CONTINUOUS
10
89.5002
20
-103.901
11
89.4999
21
-103.901
0
LINE
8
BLACK
6
CONTINUOUS
10
89.4999
20
-103.901
11
76.4998
21
-103.892
0
LINE
8
BLACK
6
CONTINUOUS
10
76.4998
20
-103.892
11
76.4995
21
-103.892
0
LINE
8
BLACK
6
CONTINUOUS
10
76.4995
20
-103.892
11
76.4995
21
-103.892
0
LINE
8
BLACK
6
CONTINUOUS
10
76.4995
20
-103.892
11
76.4024
21
-103.882
0
LINE
8
BLACK
6
CONTINUOUS
10
76.4024
20
-103.882
11
76.4023
21
-103.882
0
LINE
8
BLACK
6
CONTINUOUS
10
76.4023
20
-103.882
11
76.4018
21
-103.882
0
LINE
8
BLACK
6
CONTINUOUS
10
76.4018
20
-103.882
11
76.4014
21
-103.882
0
LINE
8
BLACK
6
CONTINUOUS
10
76.4014
20
-103.882
11
76.4014
21
-103.882
0
LINE
8
BLACK
6
CONTINUOUS
10
76.4014
20
-103.882
11
76.4014
21
-103.882
0
LINE
8
BLACK
6
CONTINUOUS
10
76.4014
20
-103.882
11
76.4014
21
-103.882
0
LINE
8
BLACK
6
CONTINUOUS
10
76.4014
20
-103.882
11
76.308
21
-103.854
0
LINE
8
BLACK
6
CONTINUOUS
10
76.308
20
-103.854
11
76.308
21
-103.854
0
LINE
8
BLACK
6
CONTINUOUS
10
76.308
20
-103.854
11
76.308
21
-103.854
0
LINE
8
BLACK
6
CONTINUOUS
10
76.308
20
-103.854
11
76.308
21
-103.854
0
LINE
8
BLACK
6
CONTINUOUS
10
76.308
20
-103.854
11
76.3075
21
-103.854
0
LINE
8
BLACK
6
CONTINUOUS
10
76.3075
20
-103.854
11
76.3071
21
-103.854
0
LINE
8
BLACK
6
CONTINUOUS
10
76.3071
20
-103.854
11
76.3071
21
-103.854
0
LINE
8
BLACK
6
CONTINUOUS
10
76.3071
20
-103.854
11
76.3071
21
-103.854
0
LINE
8
BLACK
6
CONTINUOUS
10
76.3071
20
-103.854
11
76.3071
21
-103.854
0
LINE
8
BLACK
6
CONTINUOUS
10
76.3071
20
-103.854
11
76.221
21
-103.808
0
LINE
8
BLACK
6
CONTINUOUS
10
76.221
20
-103.808
11
76.221
21
-103.808
0
LINE
8
BLACK
6
CONTINUOUS
10
76.221
20
-103.808
11
76.2209
21
-103.808
0
LINE
8
BLACK
6
CONTINUOUS
10
76.2209
20
-103.808
11
76.2209
21
-103.808
0
LINE
8
BLACK
6
CONTINUOUS
10
76.2209
20
-103.808
11
76.2205
21
-103.807
0
LINE
8
BLACK
6
CONTINUOUS
10
76.2205
20
-103.807
11
76.2201
21
-103.807
0
LINE
8
BLACK
6
CONTINUOUS
10
76.2201
20
-103.807
11
76.1445
21
-103.746
0
LINE
8
BLACK
6
CONTINUOUS
10
76.1445
20
-103.746
11
76.1445
21
-103.746
0
LINE
8
BLACK
6
CONTINUOUS
10
76.1445
20
-103.746
11
76.1441
21
-103.745
0
LINE
8
BLACK
6
CONTINUOUS
10
76.1441
20
-103.745
11
76.1438
21
-103.745
0
LINE
8
BLACK
6
CONTINUOUS
10
76.1438
20
-103.745
11
76.0816
21
-103.67
0
LINE
8
BLACK
6
CONTINUOUS
10
76.0816
20
-103.67
11
76.0816
21
-103.67
0
LINE
8
BLACK
6
CONTINUOUS
10
76.0816
20
-103.67
11
76.0813
21
-103.669
0
LINE
8
BLACK
6
CONTINUOUS
10
76.0813
20
-103.669
11
76.0811
21
-103.669
0
LINE
8
BLACK
6
CONTINUOUS
10
76.0811
20
-103.669
11
76.0347
21
-103.583
0
LINE
8
BLACK
6
CONTINUOUS
10
76.0347
20
-103.583
11
76.0346
21
-103.583
0
LINE
8
BLACK
6
CONTINUOUS
10
76.0346
20
-103.583
11
76.0344
21
-103.583
0
LINE
8
BLACK
6
CONTINUOUS
10
76.0344
20
-103.583
11
76.0343
21
-103.582
0
LINE
8
BLACK
6
CONTINUOUS
10
76.0343
20
-103.582
11
76.0343
21
-103.582
0
LINE
8
BLACK
6
CONTINUOUS
10
76.0343
20
-103.582
11
76.0343
21
-103.582
0
LINE
8
BLACK
6
CONTINUOUS
10
76.0343
20
-103.582
11
76.0343
21
-103.582
0
LINE
8
BLACK
6
CONTINUOUS
10
76.0343
20
-103.582
11
76.0054
21
-103.489
0
LINE
8
BLACK
6
CONTINUOUS
10
76.0054
20
-103.489
11
76.0054
21
-103.489
0
LINE
8
BLACK
6
CONTINUOUS
10
76.0054
20
-103.489
11
76.0053
21
-103.488
0
LINE
8
BLACK
6
CONTINUOUS
10
76.0053
20
-103.488
11
76.0052
21
-103.488
0
LINE
8
BLACK
6
CONTINUOUS
10
76.0052
20
-103.488
11
75.995
21
-103.391
0
LINE
8
BLACK
6
CONTINUOUS
10
75.995
20
-103.391
11
75.995
21
-103.391
0
LINE
8
BLACK
6
CONTINUOUS
10
75.995
20
-103.391
11
75.995
21
-103.391
0
LINE
8
BLACK
6
CONTINUOUS
10
75.995
20
-103.391
11
75.995
21
-103.39
0
LINE
8
BLACK
6
CONTINUOUS
10
75.995
20
-103.39
11
75.995
21
-103.387
0
LINE
8
BLACK
6
CONTINUOUS
10
75.995
20
-103.387
11
75.995
21
-103.387
0
LINE
8
BLACK
6
CONTINUOUS
10
75.995
20
-103.387
11
75.995
21
-103.387
0
LINE
8
BLACK
6
CONTINUOUS
10
75.995
20
-103.387
11
75.995
21
-90.3958
0
LINE
8
BLACK
6
CONTINUOUS
10
75.995
20
-90.3958
11
75.995
21
-90.3955
0
LINE
8
BLACK
6
CONTINUOUS
10
75.995
20
-90.3955
11
76.0045
21
-90.2984
0
LINE
8
BLACK
6
CONTINUOUS
10
76.0045
20
-90.2984
11
76.0045
21
-90.2983
0
LINE
8
BLACK
6
CONTINUOUS
10
76.0045
20
-90.2983
11
76.0047
21
-90.2978
0
LINE
8
BLACK
6
CONTINUOUS
10
76.0047
20
-90.2978
11
76.0047
21
-90.2974
0
LINE
8
BLACK
6
CONTINUOUS
10
76.0047
20
-90.2974
11
76.0329
21
-90.204
0
LINE
8
BLACK
6
CONTINUOUS
10
76.0329
20
-90.204
11
76.0329
21
-90.204
0
LINE
8
BLACK
6
CONTINUOUS
10
76.0329
20
-90.204
11
76.0329
21
-90.204
0
LINE
8
BLACK
6
CONTINUOUS
10
76.0329
20
-90.204
11
76.033
21
-90.204
0
LINE
8
BLACK
6
CONTINUOUS
10
76.033
20
-90.204
11
76.0331
21
-90.2035
0
LINE
8
BLACK
6
CONTINUOUS
10
76.0331
20
-90.2035
11
76.0333
21
-90.2031
0
LINE
8
BLACK
6
CONTINUOUS
10
76.0333
20
-90.2031
11
76.0791
21
-90.117
0
LINE
8
BLACK
6
CONTINUOUS
10
76.0791
20
-90.117
11
76.0791
21
-90.117
0
LINE
8
BLACK
6
CONTINUOUS
10
76.0791
20
-90.117
11
76.0791
21
-90.1169
0
LINE
8
BLACK
6
CONTINUOUS
10
76.0791
20
-90.1169
11
76.0792
21
-90.1169
0
LINE
8
BLACK
6
CONTINUOUS
10
76.0792
20
-90.1169
11
76.0794
21
-90.1165
0
LINE
8
BLACK
6
CONTINUOUS
10
76.0794
20
-90.1165
11
76.0797
21
-90.1161
0
LINE
8
BLACK
6
CONTINUOUS
10
76.0797
20
-90.1161
11
76.1413
21
-90.0405
0
LINE
8
BLACK
6
CONTINUOUS
10
76.1413
20
-90.0405
11
76.1414
21
-90.0405
0
LINE
8
BLACK
6
CONTINUOUS
10
76.1414
20
-90.0405
11
76.1417
21
-90.0401
0
LINE
8
BLACK
6
CONTINUOUS
10
76.1417
20
-90.0401
11
76.142
21
-90.0398
0
LINE
8
BLACK
6
CONTINUOUS
10
76.142
20
-90.0398
11
76.2172
21
-89.9776
0
LINE
8
BLACK
6
CONTINUOUS
10
76.2172
20
-89.9776
11
76.2173
21
-89.9776
0
LINE
8
BLACK
6
CONTINUOUS
10
76.2173
20
-89.9776
11
76.2176
21
-89.9773
0
LINE
8
BLACK
6
CONTINUOUS
10
76.2176
20
-89.9773
11
76.218
21
-89.9771
0
LINE
8
BLACK
6
CONTINUOUS
10
76.218
20
-89.9771
11
76.3039
21
-89.9307
0
LINE
8
BLACK
6
CONTINUOUS
10
76.3039
20
-89.9307
11
76.3039
21
-89.9306
0
LINE
8
BLACK
6
CONTINUOUS
10
76.3039
20
-89.9306
11
76.3044
21
-89.9305
0
LINE
8
BLACK
6
CONTINUOUS
10
76.3044
20
-89.9305
11
76.3048
21
-89.9303
0
LINE
8
BLACK
6
CONTINUOUS
10
76.3048
20
-89.9303
11
76.398
21
-89.9014
0
LINE
8
BLACK
6
CONTINUOUS
10
76.398
20
-89.9014
11
76.398
21
-89.9014
0
LINE
8
BLACK
6
CONTINUOUS
10
76.398
20
-89.9014
11
76.398
21
-89.9014
0
LINE
8
BLACK
6
CONTINUOUS
10
76.398
20
-89.9014
11
76.398
21
-89.9014
0
LINE
8
BLACK
6
CONTINUOUS
10
76.398
20
-89.9014
11
76.3985
21
-89.9013
0
LINE
8
BLACK
6
CONTINUOUS
10
76.3985
20
-89.9013
11
76.3989
21
-89.9012
0
LINE
8
BLACK
6
CONTINUOUS
10
76.3989
20
-89.9012
11
76.496
21
-89.891
0
LINE
8
BLACK
6
CONTINUOUS
10
76.496
20
-89.891
11
76.4961
21
-89.891
0
LINE
8
BLACK
6
CONTINUOUS
10
76.4961
20
-89.891
11
76.4963
21
-89.891
0
LINE
8
BLACK
6
CONTINUOUS
10
76.4963
20
-89.891
11
76.4965
21
-89.891
0
LINE
8
BLACK
6
CONTINUOUS
10
76.4965
20
-89.891
11
76.4997
21
-89.891
0
LINE
8
BLACK
6
CONTINUOUS
10
76.4997
20
-89.891
11
76.4998
21
-89.891
0
LINE
8
BLACK
6
CONTINUOUS
10
76.4998
20
-89.891
11
89.5002
21
-89.891
0
LINE
8
BLACK
6
CONTINUOUS
10
89.5002
20
-89.891
11
89.5005
21
-89.891
0
LINE
8
BLACK
6
CONTINUOUS
10
89.5005
20
-89.891
11
89.5005
21
-89.891
0
LINE
8
BLACK
6
CONTINUOUS
10
89.5005
20
-89.891
11
89.5976
21
-89.9005
0
LINE
8
BLACK
6
CONTINUOUS
10
89.5976
20
-89.9005
11
89.5977
21
-89.9005
0
LINE
8
BLACK
6
CONTINUOUS
10
89.5977
20
-89.9005
11
89.5982
21
-89.9007
0
LINE
8
BLACK
6
CONTINUOUS
10
89.5982
20
-89.9007
11
89.5986
21
-89.9007
0
LINE
8
BLACK
6
CONTINUOUS
10
89.5986
20
-89.9007
11
89.5986
21
-89.9008
0
LINE
8
BLACK
6
CONTINUOUS
10
89.5986
20
-89.9008
11
89.5986
21
-89.9008
0
LINE
8
BLACK
6
CONTINUOUS
10
89.5986
20
-89.9008
11
89.5986
21
-89.9008
0
LINE
8
BLACK
6
CONTINUOUS
10
89.5986
20
-89.9008
11
89.692
21
-89.9289
0
LINE
8
BLACK
6
CONTINUOUS
10
89.692
20
-89.9289
11
89.692
21
-89.9289
0
LINE
8
BLACK
6
CONTINUOUS
10
89.692
20
-89.9289
11
89.692
21
-89.9289
0
LINE
8
BLACK
6
CONTINUOUS
10
89.692
20
-89.9289
11
89.692
21
-89.929
0
LINE
8
BLACK
6
CONTINUOUS
10
89.692
20
-89.929
11
89.6925
21
-89.9291
0
LINE
8
BLACK
6
CONTINUOUS
10
89.6925
20
-89.9291
11
89.6929
21
-89.9293
0
LINE
8
BLACK
6
CONTINUOUS
10
89.6929
20
-89.9293
11
89.6929
21
-89.9293
0
LINE
8
BLACK
6
CONTINUOUS
10
89.6929
20
-89.9293
11
89.6929
21
-89.9293
0
LINE
8
BLACK
6
CONTINUOUS
10
89.6929
20
-89.9293
11
89.6929
21
-89.9293
0
LINE
8
BLACK
6
CONTINUOUS
10
89.6929
20
-89.9293
11
89.779
21
-89.9751
0
LINE
8
BLACK
6
CONTINUOUS
10
89.779
20
-89.9751
11
89.779
21
-89.9751
0
LINE
8
BLACK
6
CONTINUOUS
10
89.779
20
-89.9751
11
89.7791
21
-89.9751
0
LINE
8
BLACK
6
CONTINUOUS
10
89.7791
20
-89.9751
11
89.7791
21
-89.9752
0
LINE
8
BLACK
6
CONTINUOUS
10
89.7791
20
-89.9752
11
89.7795
21
-89.9754
0
LINE
8
BLACK
6
CONTINUOUS
10
89.7795
20
-89.9754
11
89.7799
21
-89.9757
0
LINE
8
BLACK
6
CONTINUOUS
10
89.7799
20
-89.9757
11
89.8555
21
-90.0373
0
LINE
8
BLACK
6
CONTINUOUS
10
89.8555
20
-90.0373
11
89.8555
21
-90.0374
0
LINE
8
BLACK
6
CONTINUOUS
10
89.8555
20
-90.0374
11
89.8559
21
-90.0377
0
LINE
8
BLACK
6
CONTINUOUS
10
89.8559
20
-90.0377
11
89.8562
21
-90.038
0
LINE
8
BLACK
6
CONTINUOUS
10
89.8562
20
-90.038
11
89.9184
21
-90.1132
0
LINE
8
BLACK
6
CONTINUOUS
10
89.9184
20
-90.1132
11
89.9184
21
-90.1133
0
LINE
8
BLACK
6
CONTINUOUS
10
89.9184
20
-90.1133
11
89.9187
21
-90.1136
0
LINE
8
BLACK
6
CONTINUOUS
10
89.9187
20
-90.1136
11
89.9189
21
-90.114
0
LINE
8
BLACK
6
CONTINUOUS
10
89.9189
20
-90.114
11
89.9653
21
-90.1999
0
LINE
8
BLACK
6
CONTINUOUS
10
89.9653
20
-90.1999
11
89.9654
21
-90.1999
0
LINE
8
BLACK
6
CONTINUOUS
10
89.9654
20
-90.1999
11
89.9655
21
-90.2004
0
LINE
8
BLACK
6
CONTINUOUS
10
89.9655
20
-90.2004
11
89.9657
21
-90.2008
0
LINE
8
BLACK
6
CONTINUOUS
10
89.9657
20
-90.2008
11
89.9946
21
-90.294
0
LINE
8
BLACK
6
CONTINUOUS
10
89.9946
20
-90.294
11
89.9946
21
-90.294
0
LINE
8
BLACK
6
CONTINUOUS
10
89.9946
20
-90.294
11
89.9946
21
-90.294
0
LINE
8
BLACK
6
CONTINUOUS
10
89.9946
20
-90.294
11
89.9946
21
-90.294
0
LINE
8
BLACK
6
CONTINUOUS
10
89.9946
20
-90.294
11
89.9947
21
-90.2945
0
LINE
8
BLACK
6
CONTINUOUS
10
89.9947
20
-90.2945
11
89.9948
21
-90.2949
0
LINE
8
BLACK
6
CONTINUOUS
10
89.9948
20
-90.2949
11
90.005
21
-90.392
0
LINE
8
BLACK
6
CONTINUOUS
10
90.005
20
-90.392
11
90.005
21
-90.3921
0
LINE
8
BLACK
6
CONTINUOUS
10
90.005
20
-90.3921
11
90.005
21
-90.3923
0
LINE
8
BLACK
6
CONTINUOUS
10
90.005
20
-90.3923
11
90.005
21
-90.3925
0
LINE
8
BLACK
6
CONTINUOUS
10
90.005
20
-90.3925
11
90.005
21
-90.3957
0
LINE
8
BLACK
6
CONTINUOUS
10
90.005
20
-90.3957
11
90.005
21
-90.3958
0
LINE
8
BLACK
6
CONTINUOUS
10
90.005
20
-90.3958
11
90.005
21
-103.396
0
LINE
8
BLACK
6
CONTINUOUS
10
90.005
20
-103.396
11
90.005
21
-103.396
0
LINE
8
BLACK
6
CONTINUOUS
10
90.005
20
-103.396
11
90.005
21
-103.396
0
LINE
8
BLACK
6
CONTINUOUS
10
90.005
20
-103.396
11
89.9955
21
-103.494
0
LINE
8
BLACK
6
CONTINUOUS
10
89.9955
20
-103.494
11
89.9954
21
-103.494
0
LINE
8
BLACK
6
CONTINUOUS
10
89.9954
20
-103.494
11
89.9953
21
-103.494
0
LINE
8
BLACK
6
CONTINUOUS
10
89.9953
20
-103.494
11
89.9953
21
-103.495
0
LINE
8
BLACK
6
CONTINUOUS
10
89.9953
20
-103.495
11
89.9671
21
-103.588
0
LINE
8
BLACK
6
CONTINUOUS
10
89.9671
20
-103.588
11
89.9671
21
-103.588
0
LINE
8
BLACK
6
CONTINUOUS
10
89.9671
20
-103.588
11
89.9671
21
-103.588
0
LINE
8
BLACK
6
CONTINUOUS
10
89.9671
20
-103.588
11
89.967
21
-103.588
0
LINE
8
BLACK
6
CONTINUOUS
10
89.967
20
-103.588
11
89.9669
21
-103.588
0
LINE
8
BLACK
6
CONTINUOUS
10
89.9669
20
-103.588
11
89.9667
21
-103.589
0
LINE
8
BLACK
6
CONTINUOUS
10
89.9667
20
-103.589
11
89.9209
21
-103.675
0
LINE
8
BLACK
6
CONTINUOUS
10
89.9209
20
-103.675
11
89.9209
21
-103.675
0
LINE
8
BLACK
6
CONTINUOUS
10
89.9209
20
-103.675
11
89.9209
21
-103.675
0
LINE
8
BLACK
6
CONTINUOUS
10
89.9209
20
-103.675
11
89.9208
21
-103.675
0
LINE
8
BLACK
6
CONTINUOUS
10
89.9208
20
-103.675
11
89.9206
21
-103.676
0
LINE
8
BLACK
6
CONTINUOUS
10
89.9206
20
-103.676
11
89.9203
21
-103.676
0
LINE
8
BLACK
6
CONTINUOUS
10
89.9203
20
-103.676
11
89.8587
21
-103.751
0
LINE
8
BLACK
6
CONTINUOUS
10
89.8587
20
-103.751
11
89.8586
21
-103.752
0
LINE
8
BLACK
6
CONTINUOUS
10
89.8586
20
-103.752
11
89.8583
21
-103.752
0
LINE
8
BLACK
6
CONTINUOUS
10
89.8583
20
-103.752
11
89.858
21
-103.752
0
LINE
8
BLACK
6
CONTINUOUS
10
89.858
20
-103.752
11
89.7828
21
-103.814
0
LINE
8
BLACK
6
CONTINUOUS
10
89.7828
20
-103.814
11
89.7827
21
-103.814
0
LINE
8
BLACK
6
CONTINUOUS
10
89.7827
20
-103.814
11
89.7823
21
-103.815
0
LINE
8
BLACK
6
CONTINUOUS
10
89.7823
20
-103.815
11
89.782
21
-103.815
0
LINE
8
BLACK
6
CONTINUOUS
10
89.782
20
-103.815
11
89.6961
21
-103.861
0
LINE
8
BLACK
6
CONTINUOUS
10
89.6961
20
-103.861
11
89.6961
21
-103.861
0
LINE
8
BLACK
6
CONTINUOUS
10
89.6961
20
-103.861
11
89.6956
21
-103.862
0
LINE
8
BLACK
6
CONTINUOUS
10
89.6956
20
-103.862
11
89.6952
21
-103.862
0
LINE
8
BLACK
6
CONTINUOUS
10
89.6952
20
-103.862
11
89.6952
21
-103.862
0
LINE
8
BLACK
6
CONTINUOUS
10
89.6952
20
-103.862
11
89.6952
21
-103.862
0
LINE
8
BLACK
6
CONTINUOUS
10
89.6952
20
-103.862
11
89.6952
21
-103.862
0
LINE
8
BLACK
6
CONTINUOUS
10
89.6952
20
-103.862
11
89.602
21
-103.891
0
LINE
8
BLACK
6
CONTINUOUS
10
89.602
20
-103.891
11
89.602
21
-103.891
0
LINE
8
BLACK
6
CONTINUOUS
10
89.602
20
-103.891
11
89.602
21
-103.891
0
LINE
8
BLACK
6
CONTINUOUS
10
76.5
20
-89.901
11
76.4968
21
-89.901
0
LINE
8
BLACK
6
CONTINUOUS
10
76.4968
20
-89.901
11
76.4005
21
-89.9111
0
LINE
8
BLACK
6
CONTINUOUS
10
76.4005
20
-89.9111
11
76.3082
21
-89.9397
0
LINE
8
BLACK
6
CONTINUOUS
10
76.3082
20
-89.9397
11
76.2232
21
-89.9856
0
LINE
8
BLACK
6
CONTINUOUS
10
76.2232
20
-89.9856
11
76.1488
21
-90.0472
0
LINE
8
BLACK
6
CONTINUOUS
10
76.1488
20
-90.0472
11
76.0877
21
-90.1221
0
LINE
8
BLACK
6
CONTINUOUS
10
76.0877
20
-90.1221
11
76.0424
21
-90.2074
0
LINE
8
BLACK
6
CONTINUOUS
10
76.0424
20
-90.2074
11
76.0145
21
-90.2999
0
LINE
8
BLACK
6
CONTINUOUS
10
76.0145
20
-90.2999
11
76.005
21
-90.3962
0
LINE
8
BLACK
6
CONTINUOUS
10
76.005
20
-90.3962
11
76.005
21
-103.387
0
LINE
8
BLACK
6
CONTINUOUS
10
76.005
20
-103.387
11
76.005
21
-103.39
0
LINE
8
BLACK
6
CONTINUOUS
10
76.005
20
-103.39
11
76.0151
21
-103.486
0
LINE
8
BLACK
6
CONTINUOUS
10
76.0151
20
-103.486
11
76.0437
21
-103.579
0
LINE
8
BLACK
6
CONTINUOUS
10
76.0437
20
-103.579
11
76.0896
21
-103.664
0
LINE
8
BLACK
6
CONTINUOUS
10
76.0896
20
-103.664
11
76.1512
21
-103.738
0
LINE
8
BLACK
6
CONTINUOUS
10
76.1512
20
-103.738
11
76.2261
21
-103.799
0
LINE
8
BLACK
6
CONTINUOUS
10
76.2261
20
-103.799
11
76.3114
21
-103.845
0
LINE
8
BLACK
6
CONTINUOUS
10
76.3114
20
-103.845
11
76.4039
21
-103.872
0
LINE
8
BLACK
6
CONTINUOUS
10
76.4039
20
-103.872
11
76.5002
21
-103.882
0
LINE
8
BLACK
6
CONTINUOUS
10
76.5002
20
-103.882
11
89.5
21
-103.891
0
LINE
8
BLACK
6
CONTINUOUS
10
89.5
20
-103.891
11
89.5032
21
-103.891
0
LINE
8
BLACK
6
CONTINUOUS
10
89.5032
20
-103.891
11
89.5995
21
-103.881
0
LINE
8
BLACK
6
CONTINUOUS
10
89.5995
20
-103.881
11
89.6918
21
-103.852
0
LINE
8
BLACK
6
CONTINUOUS
10
89.6918
20
-103.852
11
89.7768
21
-103.806
0
LINE
8
BLACK
6
CONTINUOUS
10
89.7768
20
-103.806
11
89.8512
21
-103.745
0
LINE
8
BLACK
6
CONTINUOUS
10
89.8512
20
-103.745
11
89.9123
21
-103.67
0
LINE
8
BLACK
6
CONTINUOUS
10
89.9123
20
-103.67
11
89.9576
21
-103.585
0
LINE
8
BLACK
6
CONTINUOUS
10
89.9576
20
-103.585
11
89.9855
21
-103.492
0
LINE
8
BLACK
6
CONTINUOUS
10
89.9855
20
-103.492
11
89.995
21
-103.396
0
LINE
8
BLACK
6
CONTINUOUS
10
89.995
20
-103.396
11
89.995
21
-90.396
0
LINE
8
BLACK
6
CONTINUOUS
10
89.995
20
-90.396
11
89.995
21
-90.3928
0
LINE
8
BLACK
6
CONTINUOUS
10
89.995
20
-90.3928
11
89.9849
21
-90.2965
0
LINE
8
BLACK
6
CONTINUOUS
10
89.9849
20
-90.2965
11
89.9563
21
-90.2042
0
LINE
8
BLACK
6
CONTINUOUS
10
89.9563
20
-90.2042
11
89.9104
21
-90.1192
0
LINE
8
BLACK
6
CONTINUOUS
10
89.9104
20
-90.1192
11
89.8488
21
-90.0448
0
LINE
8
BLACK
6
CONTINUOUS
10
89.8488
20
-90.0448
11
89.7739
21
-89.9837
0
LINE
8
BLACK
6
CONTINUOUS
10
89.7739
20
-89.9837
11
89.6886
21
-89.9384
0
LINE
8
BLACK
6
CONTINUOUS
10
89.6886
20
-89.9384
11
89.5961
21
-89.9105
0
LINE
8
BLACK
6
CONTINUOUS
10
89.5961
20
-89.9105
11
89.4998
21
-89.901
0
LINE
8
BLACK
6
CONTINUOUS
10
89.4998
20
-89.901
11
76.5
21
-89.901
0
LINE
8
BLACK
6
CONTINUOUS
10
51.602
20
-102.995
11
51.6015
21
-102.995
0
LINE
8
BLACK
6
CONTINUOUS
10
51.6015
20
-102.995
11
51.6011
21
-102.995
0
LINE
8
BLACK
6
CONTINUOUS
10
51.6011
20
-102.995
11
51.504
21
-103.005
0
LINE
8
BLACK
6
CONTINUOUS
10
51.504
20
-103.005
11
51.5039
21
-103.005
0
LINE
8
BLACK
6
CONTINUOUS
10
51.5039
20
-103.005
11
51.5037
21
-103.005
0
LINE
8
BLACK
6
CONTINUOUS
10
51.5037
20
-103.005
11
51.5035
21
-103.005
0
LINE
8
BLACK
6
CONTINUOUS
10
51.5035
20
-103.005
11
51.5002
21
-103.005
0
LINE
8
BLACK
6
CONTINUOUS
10
51.5002
20
-103.005
11
51.5002
21
-103.005
0
LINE
8
BLACK
6
CONTINUOUS
10
51.5002
20
-103.005
11
51.4999
21
-103.005
0
LINE
8
BLACK
6
CONTINUOUS
10
51.4999
20
-103.005
11
38.4998
21
-102.996
0
LINE
8
BLACK
6
CONTINUOUS
10
38.4998
20
-102.996
11
38.4995
21
-102.996
0
LINE
8
BLACK
6
CONTINUOUS
10
38.4995
20
-102.996
11
38.4995
21
-102.996
0
LINE
8
BLACK
6
CONTINUOUS
10
38.4995
20
-102.996
11
38.4024
21
-102.986
0
LINE
8
BLACK
6
CONTINUOUS
10
38.4024
20
-102.986
11
38.4023
21
-102.986
0
LINE
8
BLACK
6
CONTINUOUS
10
38.4023
20
-102.986
11
38.4018
21
-102.986
0
LINE
8
BLACK
6
CONTINUOUS
10
38.4018
20
-102.986
11
38.4014
21
-102.986
0
LINE
8
BLACK
6
CONTINUOUS
10
38.4014
20
-102.986
11
38.4014
21
-102.986
0
LINE
8
BLACK
6
CONTINUOUS
10
38.4014
20
-102.986
11
38.4014
21
-102.986
0
LINE
8
BLACK
6
CONTINUOUS
10
38.4014
20
-102.986
11
38.4014
21
-102.986
0
LINE
8
BLACK
6
CONTINUOUS
10
38.4014
20
-102.986
11
38.308
21
-102.958
0
LINE
8
BLACK
6
CONTINUOUS
10
38.308
20
-102.958
11
38.308
21
-102.958
0
LINE
8
BLACK
6
CONTINUOUS
10
38.308
20
-102.958
11
38.308
21
-102.958
0
LINE
8
BLACK
6
CONTINUOUS
10
38.308
20
-102.958
11
38.308
21
-102.958
0
LINE
8
BLACK
6
CONTINUOUS
10
38.308
20
-102.958
11
38.3075
21
-102.958
0
LINE
8
BLACK
6
CONTINUOUS
10
38.3075
20
-102.958
11
38.3071
21
-102.958
0
LINE
8
BLACK
6
CONTINUOUS
10
38.3071
20
-102.958
11
38.3071
21
-102.958
0
LINE
8
BLACK
6
CONTINUOUS
10
38.3071
20
-102.958
11
38.3071
21
-102.958
0
LINE
8
BLACK
6
CONTINUOUS
10
38.3071
20
-102.958
11
38.3071
21
-102.958
0
LINE
8
BLACK
6
CONTINUOUS
10
38.3071
20
-102.958
11
38.221
21
-102.912
0
LINE
8
BLACK
6
CONTINUOUS
10
38.221
20
-102.912
11
38.221
21
-102.912
0
LINE
8
BLACK
6
CONTINUOUS
10
38.221
20
-102.912
11
38.2209
21
-102.912
0
LINE
8
BLACK
6
CONTINUOUS
10
38.2209
20
-102.912
11
38.2209
21
-102.912
0
LINE
8
BLACK
6
CONTINUOUS
10
38.2209
20
-102.912
11
38.2205
21
-102.911
0
LINE
8
BLACK
6
CONTINUOUS
10
38.2205
20
-102.911
11
38.2201
21
-102.911
0
LINE
8
BLACK
6
CONTINUOUS
10
38.2201
20
-102.911
11
38.1445
21
-102.85
0
LINE
8
BLACK
6
CONTINUOUS
10
38.1445
20
-102.85
11
38.1445
21
-102.85
0
LINE
8
BLACK
6
CONTINUOUS
10
38.1445
20
-102.85
11
38.1441
21
-102.849
0
LINE
8
BLACK
6
CONTINUOUS
10
38.1441
20
-102.849
11
38.1438
21
-102.849
0
LINE
8
BLACK
6
CONTINUOUS
10
38.1438
20
-102.849
11
38.0816
21
-102.774
0
LINE
8
BLACK
6
CONTINUOUS
10
38.0816
20
-102.774
11
38.0816
21
-102.774
0
LINE
8
BLACK
6
CONTINUOUS
10
38.0816
20
-102.774
11
38.0813
21
-102.773
0
LINE
8
BLACK
6
CONTINUOUS
10
38.0813
20
-102.773
11
38.0811
21
-102.773
0
LINE
8
BLACK
6
CONTINUOUS
10
38.0811
20
-102.773
11
38.0347
21
-102.687
0
LINE
8
BLACK
6
CONTINUOUS
10
38.0347
20
-102.687
11
38.0346
21
-102.687
0
LINE
8
BLACK
6
CONTINUOUS
10
38.0346
20
-102.687
11
38.0344
21
-102.687
0
LINE
8
BLACK
6
CONTINUOUS
10
38.0344
20
-102.687
11
38.0343
21
-102.686
0
LINE
8
BLACK
6
CONTINUOUS
10
38.0343
20
-102.686
11
38.0343
21
-102.686
0
LINE
8
BLACK
6
CONTINUOUS
10
38.0343
20
-102.686
11
38.0343
21
-102.686
0
LINE
8
BLACK
6
CONTINUOUS
10
38.0343
20
-102.686
11
38.0343
21
-102.686
0
LINE
8
BLACK
6
CONTINUOUS
10
38.0343
20
-102.686
11
38.0054
21
-102.593
0
LINE
8
BLACK
6
CONTINUOUS
10
38.0054
20
-102.593
11
38.0054
21
-102.593
0
LINE
8
BLACK
6
CONTINUOUS
10
38.0054
20
-102.593
11
38.0053
21
-102.592
0
LINE
8
BLACK
6
CONTINUOUS
10
38.0053
20
-102.592
11
38.0052
21
-102.592
0
LINE
8
BLACK
6
CONTINUOUS
10
38.0052
20
-102.592
11
37.995
21
-102.495
0
LINE
8
BLACK
6
CONTINUOUS
10
37.995
20
-102.495
11
37.995
21
-102.495
0
LINE
8
BLACK
6
CONTINUOUS
10
37.995
20
-102.495
11
37.995
21
-102.495
0
LINE
8
BLACK
6
CONTINUOUS
10
37.995
20
-102.495
11
37.995
21
-102.494
0
LINE
8
BLACK
6
CONTINUOUS
10
37.995
20
-102.494
11
37.995
21
-102.491
0
LINE
8
BLACK
6
CONTINUOUS
10
37.995
20
-102.491
11
37.995
21
-102.491
0
LINE
8
BLACK
6
CONTINUOUS
10
37.995
20
-102.491
11
37.995
21
-102.491
0
LINE
8
BLACK
6
CONTINUOUS
10
37.995
20
-102.491
11
37.995
21
-89.4998
0
LINE
8
BLACK
6
CONTINUOUS
10
37.995
20
-89.4998
11
37.995
21
-89.4995
0
LINE
8
BLACK
6
CONTINUOUS
10
37.995
20
-89.4995
11
38.0045
21
-89.4024
0
LINE
8
BLACK
6
CONTINUOUS
10
38.0045
20
-89.4024
11
38.0046
21
-89.4023
0
LINE
8
BLACK
6
CONTINUOUS
10
38.0046
20
-89.4023
11
38.0047
21
-89.4018
0
LINE
8
BLACK
6
CONTINUOUS
10
38.0047
20
-89.4018
11
38.0047
21
-89.4014
0
LINE
8
BLACK
6
CONTINUOUS
10
38.0047
20
-89.4014
11
38.0329
21
-89.308
0
LINE
8
BLACK
6
CONTINUOUS
10
38.0329
20
-89.308
11
38.0329
21
-89.308
0
LINE
8
BLACK
6
CONTINUOUS
10
38.0329
20
-89.308
11
38.0329
21
-89.308
0
LINE
8
BLACK
6
CONTINUOUS
10
38.0329
20
-89.308
11
38.033
21
-89.308
0
LINE
8
BLACK
6
CONTINUOUS
10
38.033
20
-89.308
11
38.0331
21
-89.3075
0
LINE
8
BLACK
6
CONTINUOUS
10
38.0331
20
-89.3075
11
38.0333
21
-89.3071
0
LINE
8
BLACK
6
CONTINUOUS
10
38.0333
20
-89.3071
11
38.0791
21
-89.221
0
LINE
8
BLACK
6
CONTINUOUS
10
38.0791
20
-89.221
11
38.0791
21
-89.221
0
LINE
8
BLACK
6
CONTINUOUS
10
38.0791
20
-89.221
11
38.0791
21
-89.2209
0
LINE
8
BLACK
6
CONTINUOUS
10
38.0791
20
-89.2209
11
38.0792
21
-89.2209
0
LINE
8
BLACK
6
CONTINUOUS
10
38.0792
20
-89.2209
11
38.0794
21
-89.2205
0
LINE
8
BLACK
6
CONTINUOUS
10
38.0794
20
-89.2205
11
38.0797
21
-89.2201
0
LINE
8
BLACK
6
CONTINUOUS
10
38.0797
20
-89.2201
11
38.1413
21
-89.1445
0
LINE
8
BLACK
6
CONTINUOUS
10
38.1413
20
-89.1445
11
38.1414
21
-89.1445
0
LINE
8
BLACK
6
CONTINUOUS
10
38.1414
20
-89.1445
11
38.1417
21
-89.1441
0
LINE
8
BLACK
6
CONTINUOUS
10
38.1417
20
-89.1441
11
38.142
21
-89.1438
0
LINE
8
BLACK
6
CONTINUOUS
10
38.142
20
-89.1438
11
38.2172
21
-89.0816
0
LINE
8
BLACK
6
CONTINUOUS
10
38.2172
20
-89.0816
11
38.2173
21
-89.0816
0
LINE
8
BLACK
6
CONTINUOUS
10
38.2173
20
-89.0816
11
38.2176
21
-89.0813
0
LINE
8
BLACK
6
CONTINUOUS
10
38.2176
20
-89.0813
11
38.218
21
-89.0811
0
LINE
8
BLACK
6
CONTINUOUS
10
38.218
20
-89.0811
11
38.3039
21
-89.0347
0
LINE
8
BLACK
6
CONTINUOUS
10
38.3039
20
-89.0347
11
38.3039
21
-89.0346
0
LINE
8
BLACK
6
CONTINUOUS
10
38.3039
20
-89.0346
11
38.3044
21
-89.0345
0
LINE
8
BLACK
6
CONTINUOUS
10
38.3044
20
-89.0345
11
38.3048
21
-89.0343
0
LINE
8
BLACK
6
CONTINUOUS
10
38.3048
20
-89.0343
11
38.398
21
-89.0054
0
LINE
8
BLACK
6
CONTINUOUS
10
38.398
20
-89.0054
11
38.398
21
-89.0054
0
LINE
8
BLACK
6
CONTINUOUS
10
38.398
20
-89.0054
11
38.398
21
-89.0054
0
LINE
8
BLACK
6
CONTINUOUS
10
38.398
20
-89.0054
11
38.398
21
-89.0054
0
LINE
8
BLACK
6
CONTINUOUS
10
38.398
20
-89.0054
11
38.3985
21
-89.0053
0
LINE
8
BLACK
6
CONTINUOUS
10
38.3985
20
-89.0053
11
38.3989
21
-89.0052
0
LINE
8
BLACK
6
CONTINUOUS
10
38.3989
20
-89.0052
11
38.496
21
-88.995
0
LINE
8
BLACK
6
CONTINUOUS
10
38.496
20
-88.995
11
38.4961
21
-88.995
0
LINE
8
BLACK
6
CONTINUOUS
10
38.4961
20
-88.995
11
38.4963
21
-88.995
0
LINE
8
BLACK
6
CONTINUOUS
10
38.4963
20
-88.995
11
38.4965
21
-88.995
0
LINE
8
BLACK
6
CONTINUOUS
10
38.4965
20
-88.995
11
38.4997
21
-88.995
0
LINE
8
BLACK
6
CONTINUOUS
10
38.4997
20
-88.995
11
38.4998
21
-88.995
0
LINE
8
BLACK
6
CONTINUOUS
10
38.4998
20
-88.995
11
51.5002
21
-88.995
0
LINE
8
BLACK
6
CONTINUOUS
10
51.5002
20
-88.995
11
51.5005
21
-88.995
0
LINE
8
BLACK
6
CONTINUOUS
10
51.5005
20
-88.995
11
51.5005
21
-88.995
0
LINE
8
BLACK
6
CONTINUOUS
10
51.5005
20
-88.995
11
51.5976
21
-89.0045
0
LINE
8
BLACK
6
CONTINUOUS
10
51.5976
20
-89.0045
11
51.5977
21
-89.0045
0
LINE
8
BLACK
6
CONTINUOUS
10
51.5977
20
-89.0045
11
51.5982
21
-89.0047
0
LINE
8
BLACK
6
CONTINUOUS
10
51.5982
20
-89.0047
11
51.5986
21
-89.0047
0
LINE
8
BLACK
6
CONTINUOUS
10
51.5986
20
-89.0047
11
51.5986
21
-89.0048
0
LINE
8
BLACK
6
CONTINUOUS
10
51.5986
20
-89.0048
11
51.5986
21
-89.0048
0
LINE
8
BLACK
6
CONTINUOUS
10
51.5986
20
-89.0048
11
51.5986
21
-89.0048
0
LINE
8
BLACK
6
CONTINUOUS
10
51.5986
20
-89.0048
11
51.692
21
-89.0329
0
LINE
8
BLACK
6
CONTINUOUS
10
51.692
20
-89.0329
11
51.692
21
-89.0329
0
LINE
8
BLACK
6
CONTINUOUS
10
51.692
20
-89.0329
11
51.692
21
-89.0329
0
LINE
8
BLACK
6
CONTINUOUS
10
51.692
20
-89.0329
11
51.692
21
-89.033
0
LINE
8
BLACK
6
CONTINUOUS
10
51.692
20
-89.033
11
51.6925
21
-89.0331
0
LINE
8
BLACK
6
CONTINUOUS
10
51.6925
20
-89.0331
11
51.6929
21
-89.0333
0
LINE
8
BLACK
6
CONTINUOUS
10
51.6929
20
-89.0333
11
51.6929
21
-89.0333
0
LINE
8
BLACK
6
CONTINUOUS
10
51.6929
20
-89.0333
11
51.6929
21
-89.0333
0
LINE
8
BLACK
6
CONTINUOUS
10
51.6929
20
-89.0333
11
51.6929
21
-89.0333
0
LINE
8
BLACK
6
CONTINUOUS
10
51.6929
20
-89.0333
11
51.779
21
-89.0791
0
LINE
8
BLACK
6
CONTINUOUS
10
51.779
20
-89.0791
11
51.779
21
-89.0791
0
LINE
8
BLACK
6
CONTINUOUS
10
51.779
20
-89.0791
11
51.7791
21
-89.0791
0
LINE
8
BLACK
6
CONTINUOUS
10
51.7791
20
-89.0791
11
51.7791
21
-89.0792
0
LINE
8
BLACK
6
CONTINUOUS
10
51.7791
20
-89.0792
11
51.7795
21
-89.0794
0
LINE
8
BLACK
6
CONTINUOUS
10
51.7795
20
-89.0794
11
51.7799
21
-89.0797
0
LINE
8
BLACK
6
CONTINUOUS
10
51.7799
20
-89.0797
11
51.8555
21
-89.1413
0
LINE
8
BLACK
6
CONTINUOUS
10
51.8555
20
-89.1413
11
51.8555
21
-89.1414
0
LINE
8
BLACK
6
CONTINUOUS
10
51.8555
20
-89.1414
11
51.8559
21
-89.1417
0
LINE
8
BLACK
6
CONTINUOUS
10
51.8559
20
-89.1417
11
51.8562
21
-89.142
0
LINE
8
BLACK
6
CONTINUOUS
10
51.8562
20
-89.142
11
51.9184
21
-89.2172
0
LINE
8
BLACK
6
CONTINUOUS
10
51.9184
20
-89.2172
11
51.9184
21
-89.2173
0
LINE
8
BLACK
6
CONTINUOUS
10
51.9184
20
-89.2173
11
51.9187
21
-89.2176
0
LINE
8
BLACK
6
CONTINUOUS
10
51.9187
20
-89.2176
11
51.9189
21
-89.218
0
LINE
8
BLACK
6
CONTINUOUS
10
51.9189
20
-89.218
11
51.9653
21
-89.3039
0
LINE
8
BLACK
6
CONTINUOUS
10
51.9653
20
-89.3039
11
51.9654
21
-89.3039
0
LINE
8
BLACK
6
CONTINUOUS
10
51.9654
20
-89.3039
11
51.9655
21
-89.3044
0
LINE
8
BLACK
6
CONTINUOUS
10
51.9655
20
-89.3044
11
51.9657
21
-89.3048
0
LINE
8
BLACK
6
CONTINUOUS
10
51.9657
20
-89.3048
11
51.9946
21
-89.398
0
LINE
8
BLACK
6
CONTINUOUS
10
51.9946
20
-89.398
11
51.9946
21
-89.398
0
LINE
8
BLACK
6
CONTINUOUS
10
51.9946
20
-89.398
11
51.9946
21
-89.398
0
LINE
8
BLACK
6
CONTINUOUS
10
51.9946
20
-89.398
11
51.9946
21
-89.398
0
LINE
8
BLACK
6
CONTINUOUS
10
51.9946
20
-89.398
11
51.9947
21
-89.3985
0
LINE
8
BLACK
6
CONTINUOUS
10
51.9947
20
-89.3985
11
51.9948
21
-89.3989
0
LINE
8
BLACK
6
CONTINUOUS
10
51.9948
20
-89.3989
11
52.005
21
-89.496
0
LINE
8
BLACK
6
CONTINUOUS
10
52.005
20
-89.496
11
52.005
21
-89.4961
0
LINE
8
BLACK
6
CONTINUOUS
10
52.005
20
-89.4961
11
52.005
21
-89.4963
0
LINE
8
BLACK
6
CONTINUOUS
10
52.005
20
-89.4963
11
52.005
21
-89.4965
0
LINE
8
BLACK
6
CONTINUOUS
10
52.005
20
-89.4965
11
52.005
21
-89.4997
0
LINE
8
BLACK
6
CONTINUOUS
10
52.005
20
-89.4997
11
52.005
21
-89.4998
0
LINE
8
BLACK
6
CONTINUOUS
10
52.005
20
-89.4998
11
52.005
21
-102.5
0
LINE
8
BLACK
6
CONTINUOUS
10
52.005
20
-102.5
11
52.005
21
-102.5
0
LINE
8
BLACK
6
CONTINUOUS
10
52.005
20
-102.5
11
52.005
21
-102.5
0
LINE
8
BLACK
6
CONTINUOUS
10
52.005
20
-102.5
11
51.9955
21
-102.598
0
LINE
8
BLACK
6
CONTINUOUS
10
51.9955
20
-102.598
11
51.9954
21
-102.598
0
LINE
8
BLACK
6
CONTINUOUS
10
51.9954
20
-102.598
11
51.9953
21
-102.598
0
LINE
8
BLACK
6
CONTINUOUS
10
51.9953
20
-102.598
11
51.9953
21
-102.599
0
LINE
8
BLACK
6
CONTINUOUS
10
51.9953
20
-102.599
11
51.9671
21
-102.692
0
LINE
8
BLACK
6
CONTINUOUS
10
51.9671
20
-102.692
11
51.9671
21
-102.692
0
LINE
8
BLACK
6
CONTINUOUS
10
51.9671
20
-102.692
11
51.9671
21
-102.692
0
LINE
8
BLACK
6
CONTINUOUS
10
51.9671
20
-102.692
11
51.967
21
-102.692
0
LINE
8
BLACK
6
CONTINUOUS
10
51.967
20
-102.692
11
51.9669
21
-102.692
0
LINE
8
BLACK
6
CONTINUOUS
10
51.9669
20
-102.692
11
51.9667
21
-102.693
0
LINE
8
BLACK
6
CONTINUOUS
10
51.9667
20
-102.693
11
51.9209
21
-102.779
0
LINE
8
BLACK
6
CONTINUOUS
10
51.9209
20
-102.779
11
51.9209
21
-102.779
0
LINE
8
BLACK
6
CONTINUOUS
10
51.9209
20
-102.779
11
51.9209
21
-102.779
0
LINE
8
BLACK
6
CONTINUOUS
10
51.9209
20
-102.779
11
51.9208
21
-102.779
0
LINE
8
BLACK
6
CONTINUOUS
10
51.9208
20
-102.779
11
51.9206
21
-102.78
0
LINE
8
BLACK
6
CONTINUOUS
10
51.9206
20
-102.78
11
51.9203
21
-102.78
0
LINE
8
BLACK
6
CONTINUOUS
10
51.9203
20
-102.78
11
51.8587
21
-102.855
0
LINE
8
BLACK
6
CONTINUOUS
10
51.8587
20
-102.855
11
51.8586
21
-102.856
0
LINE
8
BLACK
6
CONTINUOUS
10
51.8586
20
-102.856
11
51.8583
21
-102.856
0
LINE
8
BLACK
6
CONTINUOUS
10
51.8583
20
-102.856
11
51.858
21
-102.856
0
LINE
8
BLACK
6
CONTINUOUS
10
51.858
20
-102.856
11
51.7828
21
-102.918
0
LINE
8
BLACK
6
CONTINUOUS
10
51.7828
20
-102.918
11
51.7827
21
-102.918
0
LINE
8
BLACK
6
CONTINUOUS
10
51.7827
20
-102.918
11
51.7823
21
-102.919
0
LINE
8
BLACK
6
CONTINUOUS
10
51.7823
20
-102.919
11
51.782
21
-102.919
0
LINE
8
BLACK
6
CONTINUOUS
10
51.782
20
-102.919
11
51.6961
21
-102.965
0
LINE
8
BLACK
6
CONTINUOUS
10
51.6961
20
-102.965
11
51.6961
21
-102.965
0
LINE
8
BLACK
6
CONTINUOUS
10
51.6961
20
-102.965
11
51.6956
21
-102.966
0
LINE
8
BLACK
6
CONTINUOUS
10
51.6956
20
-102.966
11
51.6952
21
-102.966
0
LINE
8
BLACK
6
CONTINUOUS
10
51.6952
20
-102.966
11
51.6952
21
-102.966
0
LINE
8
BLACK
6
CONTINUOUS
10
51.6952
20
-102.966
11
51.6952
21
-102.966
0
LINE
8
BLACK
6
CONTINUOUS
10
51.6952
20
-102.966
11
51.6952
21
-102.966
0
LINE
8
BLACK
6
CONTINUOUS
10
51.6952
20
-102.966
11
51.602
21
-102.995
0
LINE
8
BLACK
6
CONTINUOUS
10
51.602
20
-102.995
11
51.602
21
-102.995
0
LINE
8
BLACK
6
CONTINUOUS
10
51.602
20
-102.995
11
51.602
21
-102.995
0
LINE
8
BLACK
6
CONTINUOUS
10
38.5
20
-89.005
11
38.4968
21
-89.005
0
LINE
8
BLACK
6
CONTINUOUS
10
38.4968
20
-89.005
11
38.4005
21
-89.0151
0
LINE
8
BLACK
6
CONTINUOUS
10
38.4005
20
-89.0151
11
38.3082
21
-89.0437
0
LINE
8
BLACK
6
CONTINUOUS
10
38.3082
20
-89.0437
11
38.2232
21
-89.0896
0
LINE
8
BLACK
6
CONTINUOUS
10
38.2232
20
-89.0896
11
38.1488
21
-89.1512
0
LINE
8
BLACK
6
CONTINUOUS
10
38.1488
20
-89.1512
11
38.0877
21
-89.2261
0
LINE
8
BLACK
6
CONTINUOUS
10
38.0877
20
-89.2261
11
38.0424
21
-89.3114
0
LINE
8
BLACK
6
CONTINUOUS
10
38.0424
20
-89.3114
11
38.0145
21
-89.4039
0
LINE
8
BLACK
6
CONTINUOUS
10
38.0145
20
-89.4039
11
38.005
21
-89.5002
0
LINE
8
BLACK
6
CONTINUOUS
10
38.005
20
-89.5002
11
38.005
21
-102.491
0
LINE
8
BLACK
6
CONTINUOUS
10
38.005
20
-102.491
11
38.005
21
-102.494
0
LINE
8
BLACK
6
CONTINUOUS
10
38.005
20
-102.494
11
38.0151
21
-102.59
0
LINE
8
BLACK
6
CONTINUOUS
10
38.0151
20
-102.59
11
38.0437
21
-102.683
0
LINE
8
BLACK
6
CONTINUOUS
10
38.0437
20
-102.683
11
38.0896
21
-102.768
0
LINE
8
BLACK
6
CONTINUOUS
10
38.0896
20
-102.768
11
38.1512
21
-102.842
0
LINE
8
BLACK
6
CONTINUOUS
10
38.1512
20
-102.842
11
38.2261
21
-102.903
0
LINE
8
BLACK
6
CONTINUOUS
10
38.2261
20
-102.903
11
38.3114
21
-102.949
0
LINE
8
BLACK
6
CONTINUOUS
10
38.3114
20
-102.949
11
38.4039
21
-102.976
0
LINE
8
BLACK
6
CONTINUOUS
10
38.4039
20
-102.976
11
38.5002
21
-102.986
0
LINE
8
BLACK
6
CONTINUOUS
10
38.5002
20
-102.986
11
51.5
21
-102.995
0
LINE
8
BLACK
6
CONTINUOUS
10
51.5
20
-102.995
11
51.5032
21
-102.995
0
LINE
8
BLACK
6
CONTINUOUS
10
51.5032
20
-102.995
11
51.5995
21
-102.985
0
LINE
8
BLACK
6
CONTINUOUS
10
51.5995
20
-102.985
11
51.6918
21
-102.956
0
LINE
8
BLACK
6
CONTINUOUS
10
51.6918
20
-102.956
11
51.7768
21
-102.91
0
LINE
8
BLACK
6
CONTINUOUS
10
51.7768
20
-102.91
11
51.8512
21
-102.849
0
LINE
8
BLACK
6
CONTINUOUS
10
51.8512
20
-102.849
11
51.9123
21
-102.774
0
LINE
8
BLACK
6
CONTINUOUS
10
51.9123
20
-102.774
11
51.9576
21
-102.689
0
LINE
8
BLACK
6
CONTINUOUS
10
51.9576
20
-102.689
11
51.9855
21
-102.596
0
LINE
8
BLACK
6
CONTINUOUS
10
51.9855
20
-102.596
11
51.995
21
-102.5
0
LINE
8
BLACK
6
CONTINUOUS
10
51.995
20
-102.5
11
51.995
21
-89.5
0
LINE
8
BLACK
6
CONTINUOUS
10
51.995
20
-89.5
11
51.995
21
-89.4968
0
LINE
8
BLACK
6
CONTINUOUS
10
51.995
20
-89.4968
11
51.9849
21
-89.4005
0
LINE
8
BLACK
6
CONTINUOUS
10
51.9849
20
-89.4005
11
51.9563
21
-89.3082
0
LINE
8
BLACK
6
CONTINUOUS
10
51.9563
20
-89.3082
11
51.9104
21
-89.2232
0
LINE
8
BLACK
6
CONTINUOUS
10
51.9104
20
-89.2232
11
51.8488
21
-89.1488
0
LINE
8
BLACK
6
CONTINUOUS
10
51.8488
20
-89.1488
11
51.7739
21
-89.0877
0
LINE
8
BLACK
6
CONTINUOUS
10
51.7739
20
-89.0877
11
51.6886
21
-89.0424
0
LINE
8
BLACK
6
CONTINUOUS
10
51.6886
20
-89.0424
11
51.5961
21
-89.0145
0
LINE
8
BLACK
6
CONTINUOUS
10
51.5961
20
-89.0145
11
51.4998
21
-89.005
0
LINE
8
BLACK
6
CONTINUOUS
10
51.4998
20
-89.005
11
38.5
21
-89.005
0
LINE
8
BLACK
6
CONTINUOUS
10
127.582
20
-91.9846
11
127.581
21
-91.9847
0
LINE
8
BLACK
6
CONTINUOUS
10
127.581
20
-91.9847
11
127.581
21
-91.9848
0
LINE
8
BLACK
6
CONTINUOUS
10
127.581
20
-91.9848
11
127.484
21
-91.995
0
LINE
8
BLACK
6
CONTINUOUS
10
127.484
20
-91.995
11
127.484
21
-91.995
0
LINE
8
BLACK
6
CONTINUOUS
10
127.484
20
-91.995
11
127.484
21
-91.995
0
LINE
8
BLACK
6
CONTINUOUS
10
127.484
20
-91.995
11
127.484
21
-91.995
0
LINE
8
BLACK
6
CONTINUOUS
10
127.484
20
-91.995
11
127.48
21
-91.995
0
LINE
8
BLACK
6
CONTINUOUS
10
127.48
20
-91.995
11
127.48
21
-91.995
0
LINE
8
BLACK
6
CONTINUOUS
10
127.48
20
-91.995
11
127.48
21
-91.995
0
LINE
8
BLACK
6
CONTINUOUS
10
127.48
20
-91.995
11
114.48
21
-91.9859
0
LINE
8
BLACK
6
CONTINUOUS
10
114.48
20
-91.9859
11
114.48
21
-91.9859
0
LINE
8
BLACK
6
CONTINUOUS
10
114.48
20
-91.9859
11
114.48
21
-91.9859
0
LINE
8
BLACK
6
CONTINUOUS
10
114.48
20
-91.9859
11
114.382
21
-91.9764
0
LINE
8
BLACK
6
CONTINUOUS
10
114.382
20
-91.9764
11
114.382
21
-91.9764
0
LINE
8
BLACK
6
CONTINUOUS
10
114.382
20
-91.9764
11
114.382
21
-91.9763
0
LINE
8
BLACK
6
CONTINUOUS
10
114.382
20
-91.9763
11
114.381
21
-91.9762
0
LINE
8
BLACK
6
CONTINUOUS
10
114.381
20
-91.9762
11
114.381
21
-91.9762
0
LINE
8
BLACK
6
CONTINUOUS
10
114.381
20
-91.9762
11
114.381
21
-91.9762
0
LINE
8
BLACK
6
CONTINUOUS
10
114.381
20
-91.9762
11
114.381
21
-91.9762
0
LINE
8
BLACK
6
CONTINUOUS
10
114.381
20
-91.9762
11
114.288
21
-91.948
0
LINE
8
BLACK
6
CONTINUOUS
10
114.288
20
-91.948
11
114.288
21
-91.948
0
LINE
8
BLACK
6
CONTINUOUS
10
114.288
20
-91.948
11
114.288
21
-91.948
0
LINE
8
BLACK
6
CONTINUOUS
10
114.288
20
-91.948
11
114.288
21
-91.948
0
LINE
8
BLACK
6
CONTINUOUS
10
114.288
20
-91.948
11
114.287
21
-91.9478
0
LINE
8
BLACK
6
CONTINUOUS
10
114.287
20
-91.9478
11
114.287
21
-91.9476
0
LINE
8
BLACK
6
CONTINUOUS
10
114.287
20
-91.9476
11
114.287
21
-91.9476
0
LINE
8
BLACK
6
CONTINUOUS
10
114.287
20
-91.9476
11
114.287
21
-91.9476
0
LINE
8
BLACK
6
CONTINUOUS
10
114.287
20
-91.9476
11
114.287
21
-91.9476
0
LINE
8
BLACK
6
CONTINUOUS
10
114.287
20
-91.9476
11
114.201
21
-91.9018
0
LINE
8
BLACK
6
CONTINUOUS
10
114.201
20
-91.9018
11
114.201
21
-91.9018
0
LINE
8
BLACK
6
CONTINUOUS
10
114.201
20
-91.9018
11
114.201
21
-91.9018
0
LINE
8
BLACK
6
CONTINUOUS
10
114.201
20
-91.9018
11
114.201
21
-91.9018
0
LINE
8
BLACK
6
CONTINUOUS
10
114.201
20
-91.9018
11
114.2
21
-91.9015
0
LINE
8
BLACK
6
CONTINUOUS
10
114.2
20
-91.9015
11
114.2
21
-91.9013
0
LINE
8
BLACK
6
CONTINUOUS
10
114.2
20
-91.9013
11
114.125
21
-91.8396
0
LINE
8
BLACK
6
CONTINUOUS
10
114.125
20
-91.8396
11
114.124
21
-91.8395
0
LINE
8
BLACK
6
CONTINUOUS
10
114.124
20
-91.8395
11
114.124
21
-91.8392
0
LINE
8
BLACK
6
CONTINUOUS
10
114.124
20
-91.8392
11
114.124
21
-91.8389
0
LINE
8
BLACK
6
CONTINUOUS
10
114.124
20
-91.8389
11
114.062
21
-91.7637
0
LINE
8
BLACK
6
CONTINUOUS
10
114.062
20
-91.7637
11
114.062
21
-91.7637
0
LINE
8
BLACK
6
CONTINUOUS
10
114.062
20
-91.7637
11
114.061
21
-91.7633
0
LINE
8
BLACK
6
CONTINUOUS
10
114.061
20
-91.7633
11
114.061
21
-91.7629
0
LINE
8
BLACK
6
CONTINUOUS
10
114.061
20
-91.7629
11
114.015
21
-91.6771
0
LINE
8
BLACK
6
CONTINUOUS
10
114.015
20
-91.6771
11
114.015
21
-91.677
0
LINE
8
BLACK
6
CONTINUOUS
10
114.015
20
-91.677
11
114.014
21
-91.6765
0
LINE
8
BLACK
6
CONTINUOUS
10
114.014
20
-91.6765
11
114.014
21
-91.6762
0
LINE
8
BLACK
6
CONTINUOUS
10
114.014
20
-91.6762
11
114.014
21
-91.6761
0
LINE
8
BLACK
6
CONTINUOUS
10
114.014
20
-91.6761
11
114.014
21
-91.6761
0
LINE
8
BLACK
6
CONTINUOUS
10
114.014
20
-91.6761
11
114.014
21
-91.6761
0
LINE
8
BLACK
6
CONTINUOUS
10
114.014
20
-91.6761
11
113.985
21
-91.5829
0
LINE
8
BLACK
6
CONTINUOUS
10
113.985
20
-91.5829
11
113.985
21
-91.5829
0
LINE
8
BLACK
6
CONTINUOUS
10
113.985
20
-91.5829
11
113.985
21
-91.5824
0
LINE
8
BLACK
6
CONTINUOUS
10
113.985
20
-91.5824
11
113.985
21
-91.582
0
LINE
8
BLACK
6
CONTINUOUS
10
113.985
20
-91.582
11
113.975
21
-91.4849
0
LINE
8
BLACK
6
CONTINUOUS
10
113.975
20
-91.4849
11
113.975
21
-91.4849
0
LINE
8
BLACK
6
CONTINUOUS
10
113.975
20
-91.4849
11
113.975
21
-91.4846
0
LINE
8
BLACK
6
CONTINUOUS
10
113.975
20
-91.4846
11
113.975
21
-91.4844
0
LINE
8
BLACK
6
CONTINUOUS
10
113.975
20
-91.4844
11
113.975
21
-91.4809
0
LINE
8
BLACK
6
CONTINUOUS
10
113.975
20
-91.4809
11
113.975
21
-91.4809
0
LINE
8
BLACK
6
CONTINUOUS
10
113.975
20
-91.4809
11
113.975
21
-91.4809
0
LINE
8
BLACK
6
CONTINUOUS
10
113.975
20
-91.4809
11
113.975
21
-78.4898
0
LINE
8
BLACK
6
CONTINUOUS
10
113.975
20
-78.4898
11
113.975
21
-78.4895
0
LINE
8
BLACK
6
CONTINUOUS
10
113.975
20
-78.4895
11
113.985
21
-78.3924
0
LINE
8
BLACK
6
CONTINUOUS
10
113.985
20
-78.3924
11
113.985
21
-78.3923
0
LINE
8
BLACK
6
CONTINUOUS
10
113.985
20
-78.3923
11
113.985
21
-78.3918
0
LINE
8
BLACK
6
CONTINUOUS
10
113.985
20
-78.3918
11
113.985
21
-78.3914
0
LINE
8
BLACK
6
CONTINUOUS
10
113.985
20
-78.3914
11
114.013
21
-78.298
0
LINE
8
BLACK
6
CONTINUOUS
10
114.013
20
-78.298
11
114.013
21
-78.298
0
LINE
8
BLACK
6
CONTINUOUS
10
114.013
20
-78.298
11
114.013
21
-78.298
0
LINE
8
BLACK
6
CONTINUOUS
10
114.013
20
-78.298
11
114.013
21
-78.298
0
LINE
8
BLACK
6
CONTINUOUS
10
114.013
20
-78.298
11
114.013
21
-78.2975
0
LINE
8
BLACK
6
CONTINUOUS
10
114.013
20
-78.2975
11
114.013
21
-78.2971
0
LINE
8
BLACK
6
CONTINUOUS
10
114.013
20
-78.2971
11
114.059
21
-78.211
0
LINE
8
BLACK
6
CONTINUOUS
10
114.059
20
-78.211
11
114.059
21
-78.211
0
LINE
8
BLACK
6
CONTINUOUS
10
114.059
20
-78.211
11
114.059
21
-78.2109
0
LINE
8
BLACK
6
CONTINUOUS
10
114.059
20
-78.2109
11
114.059
21
-78.2109
0
LINE
8
BLACK
6
CONTINUOUS
10
114.059
20
-78.2109
11
114.059
21
-78.2105
0
LINE
8
BLACK
6
CONTINUOUS
10
114.059
20
-78.2105
11
114.06
21
-78.2101
0
LINE
8
BLACK
6
CONTINUOUS
10
114.06
20
-78.2101
11
114.121
21
-78.1345
0
LINE
8
BLACK
6
CONTINUOUS
10
114.121
20
-78.1345
11
114.121
21
-78.1345
0
LINE
8
BLACK
6
CONTINUOUS
10
114.121
20
-78.1345
11
114.122
21
-78.1341
0
LINE
8
BLACK
6
CONTINUOUS
10
114.122
20
-78.1341
11
114.122
21
-78.1338
0
LINE
8
BLACK
6
CONTINUOUS
10
114.122
20
-78.1338
11
114.197
21
-78.0716
0
LINE
8
BLACK
6
CONTINUOUS
10
114.197
20
-78.0716
11
114.197
21
-78.0716
0
LINE
8
BLACK
6
CONTINUOUS
10
114.197
20
-78.0716
11
114.198
21
-78.0713
0
LINE
8
BLACK
6
CONTINUOUS
10
114.198
20
-78.0713
11
114.198
21
-78.0711
0
LINE
8
BLACK
6
CONTINUOUS
10
114.198
20
-78.0711
11
114.284
21
-78.0247
0
LINE
8
BLACK
6
CONTINUOUS
10
114.284
20
-78.0247
11
114.284
21
-78.0246
0
LINE
8
BLACK
6
CONTINUOUS
10
114.284
20
-78.0246
11
114.284
21
-78.0245
0
LINE
8
BLACK
6
CONTINUOUS
10
114.284
20
-78.0245
11
114.285
21
-78.0243
0
LINE
8
BLACK
6
CONTINUOUS
10
114.285
20
-78.0243
11
114.378
21
-77.9954
0
LINE
8
BLACK
6
CONTINUOUS
10
114.378
20
-77.9954
11
114.378
21
-77.9954
0
LINE
8
BLACK
6
CONTINUOUS
10
114.378
20
-77.9954
11
114.378
21
-77.9954
0
LINE
8
BLACK
6
CONTINUOUS
10
114.378
20
-77.9954
11
114.378
21
-77.9954
0
LINE
8
BLACK
6
CONTINUOUS
10
114.378
20
-77.9954
11
114.378
21
-77.9953
0
LINE
8
BLACK
6
CONTINUOUS
10
114.378
20
-77.9953
11
114.379
21
-77.9952
0
LINE
8
BLACK
6
CONTINUOUS
10
114.379
20
-77.9952
11
114.476
21
-77.985
0
LINE
8
BLACK
6
CONTINUOUS
10
114.476
20
-77.985
11
114.476
21
-77.985
0
LINE
8
BLACK
6
CONTINUOUS
10
114.476
20
-77.985
11
114.476
21
-77.985
0
LINE
8
BLACK
6
CONTINUOUS
10
114.476
20
-77.985
11
114.476
21
-77.985
0
LINE
8
BLACK
6
CONTINUOUS
10
114.476
20
-77.985
11
114.48
21
-77.985
0
LINE
8
BLACK
6
CONTINUOUS
10
114.48
20
-77.985
11
114.48
21
-77.985
0
LINE
8
BLACK
6
CONTINUOUS
10
114.48
20
-77.985
11
127.48
21
-77.985
0
LINE
8
BLACK
6
CONTINUOUS
10
127.48
20
-77.985
11
127.48
21
-77.985
0
LINE
8
BLACK
6
CONTINUOUS
10
127.48
20
-77.985
11
127.48
21
-77.985
0
LINE
8
BLACK
6
CONTINUOUS
10
127.48
20
-77.985
11
127.578
21
-77.9945
0
LINE
8
BLACK
6
CONTINUOUS
10
127.578
20
-77.9945
11
127.578
21
-77.9945
0
LINE
8
BLACK
6
CONTINUOUS
10
127.578
20
-77.9945
11
127.578
21
-77.9947
0
LINE
8
BLACK
6
CONTINUOUS
10
127.578
20
-77.9947
11
127.579
21
-77.9947
0
LINE
8
BLACK
6
CONTINUOUS
10
127.579
20
-77.9947
11
127.579
21
-77.9948
0
LINE
8
BLACK
6
CONTINUOUS
10
127.579
20
-77.9948
11
127.579
21
-77.9948
0
LINE
8
BLACK
6
CONTINUOUS
10
127.579
20
-77.9948
11
127.579
21
-77.9948
0
LINE
8
BLACK
6
CONTINUOUS
10
127.579
20
-77.9948
11
127.672
21
-78.0229
0
LINE
8
BLACK
6
CONTINUOUS
10
127.672
20
-78.0229
11
127.672
21
-78.0229
0
LINE
8
BLACK
6
CONTINUOUS
10
127.672
20
-78.0229
11
127.672
21
-78.0229
0
LINE
8
BLACK
6
CONTINUOUS
10
127.672
20
-78.0229
11
127.672
21
-78.023
0
LINE
8
BLACK
6
CONTINUOUS
10
127.672
20
-78.023
11
127.672
21
-78.0231
0
LINE
8
BLACK
6
CONTINUOUS
10
127.672
20
-78.0231
11
127.673
21
-78.0233
0
LINE
8
BLACK
6
CONTINUOUS
10
127.673
20
-78.0233
11
127.673
21
-78.0233
0
LINE
8
BLACK
6
CONTINUOUS
10
127.673
20
-78.0233
11
127.673
21
-78.0233
0
LINE
8
BLACK
6
CONTINUOUS
10
127.673
20
-78.0233
11
127.673
21
-78.0233
0
LINE
8
BLACK
6
CONTINUOUS
10
127.673
20
-78.0233
11
127.759
21
-78.0691
0
LINE
8
BLACK
6
CONTINUOUS
10
127.759
20
-78.0691
11
127.759
21
-78.0691
0
LINE
8
BLACK
6
CONTINUOUS
10
127.759
20
-78.0691
11
127.759
21
-78.0691
0
LINE
8
BLACK
6
CONTINUOUS
10
127.759
20
-78.0691
11
127.759
21
-78.0692
0
LINE
8
BLACK
6
CONTINUOUS
10
127.759
20
-78.0692
11
127.759
21
-78.0694
0
LINE
8
BLACK
6
CONTINUOUS
10
127.759
20
-78.0694
11
127.76
21
-78.0697
0
LINE
8
BLACK
6
CONTINUOUS
10
127.76
20
-78.0697
11
127.835
21
-78.1313
0
LINE
8
BLACK
6
CONTINUOUS
10
127.835
20
-78.1313
11
127.836
21
-78.1314
0
LINE
8
BLACK
6
CONTINUOUS
10
127.836
20
-78.1314
11
127.836
21
-78.1317
0
LINE
8
BLACK
6
CONTINUOUS
10
127.836
20
-78.1317
11
127.836
21
-78.132
0
LINE
8
BLACK
6
CONTINUOUS
10
127.836
20
-78.132
11
127.898
21
-78.2072
0
LINE
8
BLACK
6
CONTINUOUS
10
127.898
20
-78.2072
11
127.898
21
-78.2073
0
LINE
8
BLACK
6
CONTINUOUS
10
127.898
20
-78.2073
11
127.899
21
-78.2076
0
LINE
8
BLACK
6
CONTINUOUS
10
127.899
20
-78.2076
11
127.899
21
-78.208
0
LINE
8
BLACK
6
CONTINUOUS
10
127.899
20
-78.208
11
127.945
21
-78.2939
0
LINE
8
BLACK
6
CONTINUOUS
10
127.945
20
-78.2939
11
127.945
21
-78.2939
0
LINE
8
BLACK
6
CONTINUOUS
10
127.945
20
-78.2939
11
127.946
21
-78.2944
0
LINE
8
BLACK
6
CONTINUOUS
10
127.946
20
-78.2944
11
127.946
21
-78.2948
0
LINE
8
BLACK
6
CONTINUOUS
10
127.946
20
-78.2948
11
127.975
21
-78.388
0
LINE
8
BLACK
6
CONTINUOUS
10
127.975
20
-78.388
11
127.975
21
-78.388
0
LINE
8
BLACK
6
CONTINUOUS
10
127.975
20
-78.388
11
127.975
21
-78.388
0
LINE
8
BLACK
6
CONTINUOUS
10
127.975
20
-78.388
11
127.975
21
-78.388
0
LINE
8
BLACK
6
CONTINUOUS
10
127.975
20
-78.388
11
127.975
21
-78.3885
0
LINE
8
BLACK
6
CONTINUOUS
10
127.975
20
-78.3885
11
127.975
21
-78.3889
0
LINE
8
BLACK
6
CONTINUOUS
10
127.975
20
-78.3889
11
127.985
21
-78.486
0
LINE
8
BLACK
6
CONTINUOUS
10
127.985
20
-78.486
11
127.985
21
-78.4861
0
LINE
8
BLACK
6
CONTINUOUS
10
127.985
20
-78.4861
11
127.985
21
-78.4863
0
LINE
8
BLACK
6
CONTINUOUS
10
127.985
20
-78.4863
11
127.985
21
-78.4865
0
LINE
8
BLACK
6
CONTINUOUS
10
127.985
20
-78.4865
11
127.985
21
-78.4897
0
LINE
8
BLACK
6
CONTINUOUS
10
127.985
20
-78.4897
11
127.985
21
-78.4898
0
LINE
8
BLACK
6
CONTINUOUS
10
127.985
20
-78.4898
11
127.985
21
-91.4902
0
LINE
8
BLACK
6
CONTINUOUS
10
127.985
20
-91.4902
11
127.985
21
-91.4905
0
LINE
8
BLACK
6
CONTINUOUS
10
127.985
20
-91.4905
11
127.985
21
-91.4905
0
LINE
8
BLACK
6
CONTINUOUS
10
127.985
20
-91.4905
11
127.975
21
-91.5876
0
LINE
8
BLACK
6
CONTINUOUS
10
127.975
20
-91.5876
11
127.975
21
-91.5877
0
LINE
8
BLACK
6
CONTINUOUS
10
127.975
20
-91.5877
11
127.975
21
-91.5882
0
LINE
8
BLACK
6
CONTINUOUS
10
127.975
20
-91.5882
11
127.975
21
-91.5886
0
LINE
8
BLACK
6
CONTINUOUS
10
127.975
20
-91.5886
11
127.947
21
-91.682
0
LINE
8
BLACK
6
CONTINUOUS
10
127.947
20
-91.682
11
127.947
21
-91.682
0
LINE
8
BLACK
6
CONTINUOUS
10
127.947
20
-91.682
11
127.947
21
-91.682
0
LINE
8
BLACK
6
CONTINUOUS
10
127.947
20
-91.682
11
127.947
21
-91.682
0
LINE
8
BLACK
6
CONTINUOUS
10
127.947
20
-91.682
11
127.947
21
-91.6825
0
LINE
8
BLACK
6
CONTINUOUS
10
127.947
20
-91.6825
11
127.947
21
-91.6829
0
LINE
8
BLACK
6
CONTINUOUS
10
127.947
20
-91.6829
11
127.901
21
-91.769
0
LINE
8
BLACK
6
CONTINUOUS
10
127.901
20
-91.769
11
127.901
21
-91.769
0
LINE
8
BLACK
6
CONTINUOUS
10
127.901
20
-91.769
11
127.901
21
-91.7691
0
LINE
8
BLACK
6
CONTINUOUS
10
127.901
20
-91.7691
11
127.901
21
-91.7691
0
LINE
8
BLACK
6
CONTINUOUS
10
127.901
20
-91.7691
11
127.901
21
-91.7695
0
LINE
8
BLACK
6
CONTINUOUS
10
127.901
20
-91.7695
11
127.9
21
-91.7699
0
LINE
8
BLACK
6
CONTINUOUS
10
127.9
20
-91.7699
11
127.839
21
-91.8455
0
LINE
8
BLACK
6
CONTINUOUS
10
127.839
20
-91.8455
11
127.839
21
-91.8455
0
LINE
8
BLACK
6
CONTINUOUS
10
127.839
20
-91.8455
11
127.838
21
-91.8459
0
LINE
8
BLACK
6
CONTINUOUS
10
127.838
20
-91.8459
11
127.838
21
-91.8462
0
LINE
8
BLACK
6
CONTINUOUS
10
127.838
20
-91.8462
11
127.763
21
-91.9084
0
LINE
8
BLACK
6
CONTINUOUS
10
127.763
20
-91.9084
11
127.763
21
-91.9084
0
LINE
8
BLACK
6
CONTINUOUS
10
127.763
20
-91.9084
11
127.762
21
-91.9087
0
LINE
8
BLACK
6
CONTINUOUS
10
127.762
20
-91.9087
11
127.762
21
-91.9089
0
LINE
8
BLACK
6
CONTINUOUS
10
127.762
20
-91.9089
11
127.676
21
-91.9553
0
LINE
8
BLACK
6
CONTINUOUS
10
127.676
20
-91.9553
11
127.676
21
-91.9554
0
LINE
8
BLACK
6
CONTINUOUS
10
127.676
20
-91.9554
11
127.676
21
-91.9556
0
LINE
8
BLACK
6
CONTINUOUS
10
127.676
20
-91.9556
11
127.675
21
-91.9557
0
LINE
8
BLACK
6
CONTINUOUS
10
127.675
20
-91.9557
11
127.675
21
-91.9557
0
LINE
8
BLACK
6
CONTINUOUS
10
127.675
20
-91.9557
11
127.675
21
-91.9557
0
LINE
8
BLACK
6
CONTINUOUS
10
127.675
20
-91.9557
11
127.675
21
-91.9557
0
LINE
8
BLACK
6
CONTINUOUS
10
127.675
20
-91.9557
11
127.582
21
-91.9846
0
LINE
8
BLACK
6
CONTINUOUS
10
127.582
20
-91.9846
11
127.582
21
-91.9846
0
LINE
8
BLACK
6
CONTINUOUS
10
127.582
20
-91.9846
11
127.582
21
-91.9846
0
LINE
8
BLACK
6
CONTINUOUS
10
114.48
20
-77.995
11
114.477
21
-77.995
0
LINE
8
BLACK
6
CONTINUOUS
10
114.477
20
-77.995
11
114.38
21
-78.0051
0
LINE
8
BLACK
6
CONTINUOUS
10
114.38
20
-78.0051
11
114.288
21
-78.0337
0
LINE
8
BLACK
6
CONTINUOUS
10
114.288
20
-78.0337
11
114.203
21
-78.0796
0
LINE
8
BLACK
6
CONTINUOUS
10
114.203
20
-78.0796
11
114.129
21
-78.1412
0
LINE
8
BLACK
6
CONTINUOUS
10
114.129
20
-78.1412
11
114.068
21
-78.2161
0
LINE
8
BLACK
6
CONTINUOUS
10
114.068
20
-78.2161
11
114.022
21
-78.3014
0
LINE
8
BLACK
6
CONTINUOUS
10
114.022
20
-78.3014
11
113.994
21
-78.3939
0
LINE
8
BLACK
6
CONTINUOUS
10
113.994
20
-78.3939
11
113.985
21
-78.4902
0
LINE
8
BLACK
6
CONTINUOUS
10
113.985
20
-78.4902
11
113.985
21
-91.4809
0
LINE
8
BLACK
6
CONTINUOUS
10
113.985
20
-91.4809
11
113.985
21
-91.4841
0
LINE
8
BLACK
6
CONTINUOUS
10
113.985
20
-91.4841
11
113.995
21
-91.5805
0
LINE
8
BLACK
6
CONTINUOUS
10
113.995
20
-91.5805
11
114.024
21
-91.6727
0
LINE
8
BLACK
6
CONTINUOUS
10
114.024
20
-91.6727
11
114.07
21
-91.7577
0
LINE
8
BLACK
6
CONTINUOUS
10
114.07
20
-91.7577
11
114.131
21
-91.8321
0
LINE
8
BLACK
6
CONTINUOUS
10
114.131
20
-91.8321
11
114.206
21
-91.8932
0
LINE
8
BLACK
6
CONTINUOUS
10
114.206
20
-91.8932
11
114.291
21
-91.9385
0
LINE
8
BLACK
6
CONTINUOUS
10
114.291
20
-91.9385
11
114.384
21
-91.9665
0
LINE
8
BLACK
6
CONTINUOUS
10
114.384
20
-91.9665
11
114.48
21
-91.9759
0
LINE
8
BLACK
6
CONTINUOUS
10
114.48
20
-91.9759
11
127.48
21
-91.985
0
LINE
8
BLACK
6
CONTINUOUS
10
127.48
20
-91.985
11
127.483
21
-91.985
0
LINE
8
BLACK
6
CONTINUOUS
10
127.483
20
-91.985
11
127.58
21
-91.9749
0
LINE
8
BLACK
6
CONTINUOUS
10
127.58
20
-91.9749
11
127.672
21
-91.9463
0
LINE
8
BLACK
6
CONTINUOUS
10
127.672
20
-91.9463
11
127.757
21
-91.9004
0
LINE
8
BLACK
6
CONTINUOUS
10
127.757
20
-91.9004
11
127.831
21
-91.8388
0
LINE
8
BLACK
6
CONTINUOUS
10
127.831
20
-91.8388
11
127.892
21
-91.7639
0
LINE
8
BLACK
6
CONTINUOUS
10
127.892
20
-91.7639
11
127.938
21
-91.6786
0
LINE
8
BLACK
6
CONTINUOUS
10
127.938
20
-91.6786
11
127.966
21
-91.5861
0
LINE
8
BLACK
6
CONTINUOUS
10
127.966
20
-91.5861
11
127.975
21
-91.4897
0
LINE
8
BLACK
6
CONTINUOUS
10
127.975
20
-91.4897
11
127.975
21
-78.49
0
LINE
8
BLACK
6
CONTINUOUS
10
127.975
20
-78.49
11
127.975
21
-78.4868
0
LINE
8
BLACK
6
CONTINUOUS
10
127.975
20
-78.4868
11
127.965
21
-78.3905
0
LINE
8
BLACK
6
CONTINUOUS
10
127.965
20
-78.3905
11
127.936
21
-78.2982
0
LINE
8
BLACK
6
CONTINUOUS
10
127.936
20
-78.2982
11
127.89
21
-78.2132
0
LINE
8
BLACK
6
CONTINUOUS
10
127.89
20
-78.2132
11
127.829
21
-78.1388
0
LINE
8
BLACK
6
CONTINUOUS
10
127.829
20
-78.1388
11
127.754
21
-78.0777
0
LINE
8
BLACK
6
CONTINUOUS
10
127.754
20
-78.0777
11
127.669
21
-78.0324
0
LINE
8
BLACK
6
CONTINUOUS
10
127.669
20
-78.0324
11
127.576
21
-78.0045
0
LINE
8
BLACK
6
CONTINUOUS
10
127.576
20
-78.0045
11
127.48
21
-77.995
0
LINE
8
BLACK
6
CONTINUOUS
10
127.48
20
-77.995
11
114.48
21
-77.995
0
LINE
8
BLACK
6
CONTINUOUS
10
70.602
20
-91.0686
11
70.6015
21
-91.0687
0
LINE
8
BLACK
6
CONTINUOUS
10
70.6015
20
-91.0687
11
70.6011
21
-91.0688
0
LINE
8
BLACK
6
CONTINUOUS
10
70.6011
20
-91.0688
11
70.504
21
-91.079
0
LINE
8
BLACK
6
CONTINUOUS
10
70.504
20
-91.079
11
70.5039
21
-91.079
0
LINE
8
BLACK
6
CONTINUOUS
10
70.5039
20
-91.079
11
70.5037
21
-91.079
0
LINE
8
BLACK
6
CONTINUOUS
10
70.5037
20
-91.079
11
70.5035
21
-91.079
0
LINE
8
BLACK
6
CONTINUOUS
10
70.5035
20
-91.079
11
70.5002
21
-91.079
0
LINE
8
BLACK
6
CONTINUOUS
10
70.5002
20
-91.079
11
70.5002
21
-91.079
0
LINE
8
BLACK
6
CONTINUOUS
10
70.5002
20
-91.079
11
70.4999
21
-91.079
0
LINE
8
BLACK
6
CONTINUOUS
10
70.4999
20
-91.079
11
57.4998
21
-91.0699
0
LINE
8
BLACK
6
CONTINUOUS
10
57.4998
20
-91.0699
11
57.4995
21
-91.0699
0
LINE
8
BLACK
6
CONTINUOUS
10
57.4995
20
-91.0699
11
57.4995
21
-91.0699
0
LINE
8
BLACK
6
CONTINUOUS
10
57.4995
20
-91.0699
11
57.4024
21
-91.0604
0
LINE
8
BLACK
6
CONTINUOUS
10
57.4024
20
-91.0604
11
57.4023
21
-91.0604
0
LINE
8
BLACK
6
CONTINUOUS
10
57.4023
20
-91.0604
11
57.4018
21
-91.0603
0
LINE
8
BLACK
6
CONTINUOUS
10
57.4018
20
-91.0603
11
57.4014
21
-91.0602
0
LINE
8
BLACK
6
CONTINUOUS
10
57.4014
20
-91.0602
11
57.4014
21
-91.0602
0
LINE
8
BLACK
6
CONTINUOUS
10
57.4014
20
-91.0602
11
57.4014
21
-91.0602
0
LINE
8
BLACK
6
CONTINUOUS
10
57.4014
20
-91.0602
11
57.4014
21
-91.0602
0
LINE
8
BLACK
6
CONTINUOUS
10
57.4014
20
-91.0602
11
57.308
21
-91.032
0
LINE
8
BLACK
6
CONTINUOUS
10
57.308
20
-91.032
11
57.308
21
-91.032
0
LINE
8
BLACK
6
CONTINUOUS
10
57.308
20
-91.032
11
57.308
21
-91.032
0
LINE
8
BLACK
6
CONTINUOUS
10
57.308
20
-91.032
11
57.308
21
-91.032
0
LINE
8
BLACK
6
CONTINUOUS
10
57.308
20
-91.032
11
57.3075
21
-91.0318
0
LINE
8
BLACK
6
CONTINUOUS
10
57.3075
20
-91.0318
11
57.3071
21
-91.0316
0
LINE
8
BLACK
6
CONTINUOUS
10
57.3071
20
-91.0316
11
57.3071
21
-91.0316
0
LINE
8
BLACK
6
CONTINUOUS
10
57.3071
20
-91.0316
11
57.3071
21
-91.0316
0
LINE
8
BLACK
6
CONTINUOUS
10
57.3071
20
-91.0316
11
57.3071
21
-91.0316
0
LINE
8
BLACK
6
CONTINUOUS
10
57.3071
20
-91.0316
11
57.221
21
-90.9858
0
LINE
8
BLACK
6
CONTINUOUS
10
57.221
20
-90.9858
11
57.221
21
-90.9858
0
LINE
8
BLACK
6
CONTINUOUS
10
57.221
20
-90.9858
11
57.2209
21
-90.9858
0
LINE
8
BLACK
6
CONTINUOUS
10
57.2209
20
-90.9858
11
57.2209
21
-90.9858
0
LINE
8
BLACK
6
CONTINUOUS
10
57.2209
20
-90.9858
11
57.2205
21
-90.9855
0
LINE
8
BLACK
6
CONTINUOUS
10
57.2205
20
-90.9855
11
57.2201
21
-90.9853
0
LINE
8
BLACK
6
CONTINUOUS
10
57.2201
20
-90.9853
11
57.1445
21
-90.9236
0
LINE
8
BLACK
6
CONTINUOUS
10
57.1445
20
-90.9236
11
57.1445
21
-90.9235
0
LINE
8
BLACK
6
CONTINUOUS
10
57.1445
20
-90.9235
11
57.1441
21
-90.9232
0
LINE
8
BLACK
6
CONTINUOUS
10
57.1441
20
-90.9232
11
57.1438
21
-90.9229
0
LINE
8
BLACK
6
CONTINUOUS
10
57.1438
20
-90.9229
11
57.0816
21
-90.8477
0
LINE
8
BLACK
6
CONTINUOUS
10
57.0816
20
-90.8477
11
57.0816
21
-90.8477
0
LINE
8
BLACK
6
CONTINUOUS
10
57.0816
20
-90.8477
11
57.0813
21
-90.8473
0
LINE
8
BLACK
6
CONTINUOUS
10
57.0813
20
-90.8473
11
57.0811
21
-90.8469
0
LINE
8
BLACK
6
CONTINUOUS
10
57.0811
20
-90.8469
11
57.0347
21
-90.7611
0
LINE
8
BLACK
6
CONTINUOUS
10
57.0347
20
-90.7611
11
57.0346
21
-90.761
0
LINE
8
BLACK
6
CONTINUOUS
10
57.0346
20
-90.761
11
57.0344
21
-90.7605
0
LINE
8
BLACK
6
CONTINUOUS
10
57.0344
20
-90.7605
11
57.0343
21
-90.7602
0
LINE
8
BLACK
6
CONTINUOUS
10
57.0343
20
-90.7602
11
57.0343
21
-90.7601
0
LINE
8
BLACK
6
CONTINUOUS
10
57.0343
20
-90.7601
11
57.0343
21
-90.7601
0
LINE
8
BLACK
6
CONTINUOUS
10
57.0343
20
-90.7601
11
57.0343
21
-90.7601
0
LINE
8
BLACK
6
CONTINUOUS
10
57.0343
20
-90.7601
11
57.0054
21
-90.6669
0
LINE
8
BLACK
6
CONTINUOUS
10
57.0054
20
-90.6669
11
57.0054
21
-90.6669
0
LINE
8
BLACK
6
CONTINUOUS
10
57.0054
20
-90.6669
11
57.0053
21
-90.6664
0
LINE
8
BLACK
6
CONTINUOUS
10
57.0053
20
-90.6664
11
57.0052
21
-90.666
0
LINE
8
BLACK
6
CONTINUOUS
10
57.0052
20
-90.666
11
56.995
21
-90.5689
0
LINE
8
BLACK
6
CONTINUOUS
10
56.995
20
-90.5689
11
56.995
21
-90.5689
0
LINE
8
BLACK
6
CONTINUOUS
10
56.995
20
-90.5689
11
56.995
21
-90.5686
0
LINE
8
BLACK
6
CONTINUOUS
10
56.995
20
-90.5686
11
56.995
21
-90.5684
0
LINE
8
BLACK
6
CONTINUOUS
10
56.995
20
-90.5684
11
56.995
21
-90.5649
0
LINE
8
BLACK
6
CONTINUOUS
10
56.995
20
-90.5649
11
56.995
21
-90.5649
0
LINE
8
BLACK
6
CONTINUOUS
10
56.995
20
-90.5649
11
56.995
21
-90.5649
0
LINE
8
BLACK
6
CONTINUOUS
10
56.995
20
-90.5649
11
56.995
21
-77.5738
0
LINE
8
BLACK
6
CONTINUOUS
10
56.995
20
-77.5738
11
56.995
21
-77.5735
0
LINE
8
BLACK
6
CONTINUOUS
10
56.995
20
-77.5735
11
57.0045
21
-77.4764
0
LINE
8
BLACK
6
CONTINUOUS
10
57.0045
20
-77.4764
11
57.0045
21
-77.4763
0
LINE
8
BLACK
6
CONTINUOUS
10
57.0045
20
-77.4763
11
57.0047
21
-77.4758
0
LINE
8
BLACK
6
CONTINUOUS
10
57.0047
20
-77.4758
11
57.0047
21
-77.4754
0
LINE
8
BLACK
6
CONTINUOUS
10
57.0047
20
-77.4754
11
57.0329
21
-77.382
0
LINE
8
BLACK
6
CONTINUOUS
10
57.0329
20
-77.382
11
57.0329
21
-77.382
0
LINE
8
BLACK
6
CONTINUOUS
10
57.0329
20
-77.382
11
57.0329
21
-77.382
0
LINE
8
BLACK
6
CONTINUOUS
10
57.0329
20
-77.382
11
57.033
21
-77.382
0
LINE
8
BLACK
6
CONTINUOUS
10
57.033
20
-77.382
11
57.0331
21
-77.3815
0
LINE
8
BLACK
6
CONTINUOUS
10
57.0331
20
-77.3815
11
57.0333
21
-77.3811
0
LINE
8
BLACK
6
CONTINUOUS
10
57.0333
20
-77.3811
11
57.0791
21
-77.295
0
LINE
8
BLACK
6
CONTINUOUS
10
57.0791
20
-77.295
11
57.0791
21
-77.295
0
LINE
8
BLACK
6
CONTINUOUS
10
57.0791
20
-77.295
11
57.0791
21
-77.2949
0
LINE
8
BLACK
6
CONTINUOUS
10
57.0791
20
-77.2949
11
57.0792
21
-77.2949
0
LINE
8
BLACK
6
CONTINUOUS
10
57.0792
20
-77.2949
11
57.0794
21
-77.2945
0
LINE
8
BLACK
6
CONTINUOUS
10
57.0794
20
-77.2945
11
57.0797
21
-77.2941
0
LINE
8
BLACK
6
CONTINUOUS
10
57.0797
20
-77.2941
11
57.1413
21
-77.2185
0
LINE
8
BLACK
6
CONTINUOUS
10
57.1413
20
-77.2185
11
57.1414
21
-77.2185
0
LINE
8
BLACK
6
CONTINUOUS
10
57.1414
20
-77.2185
11
57.1417
21
-77.2181
0
LINE
8
BLACK
6
CONTINUOUS
10
57.1417
20
-77.2181
11
57.142
21
-77.2178
0
LINE
8
BLACK
6
CONTINUOUS
10
57.142
20
-77.2178
11
57.2172
21
-77.1556
0
LINE
8
BLACK
6
CONTINUOUS
10
57.2172
20
-77.1556
11
57.2173
21
-77.1556
0
LINE
8
BLACK
6
CONTINUOUS
10
57.2173
20
-77.1556
11
57.2176
21
-77.1553
0
LINE
8
BLACK
6
CONTINUOUS
10
57.2176
20
-77.1553
11
57.218
21
-77.1551
0
LINE
8
BLACK
6
CONTINUOUS
10
57.218
20
-77.1551
11
57.3039
21
-77.1087
0
LINE
8
BLACK
6
CONTINUOUS
10
57.3039
20
-77.1087
11
57.3039
21
-77.1086
0
LINE
8
BLACK
6
CONTINUOUS
10
57.3039
20
-77.1086
11
57.3044
21
-77.1085
0
LINE
8
BLACK
6
CONTINUOUS
10
57.3044
20
-77.1085
11
57.3048
21
-77.1083
0
LINE
8
BLACK
6
CONTINUOUS
10
57.3048
20
-77.1083
11
57.398
21
-77.0794
0
LINE
8
BLACK
6
CONTINUOUS
10
57.398
20
-77.0794
11
57.398
21
-77.0794
0
LINE
8
BLACK
6
CONTINUOUS
10
57.398
20
-77.0794
11
57.398
21
-77.0794
0
LINE
8
BLACK
6
CONTINUOUS
10
57.398
20
-77.0794
11
57.398
21
-77.0794
0
LINE
8
BLACK
6
CONTINUOUS
10
57.398
20
-77.0794
11
57.3985
21
-77.0793
0
LINE
8
BLACK
6
CONTINUOUS
10
57.3985
20
-77.0793
11
57.3989
21
-77.0792
0
LINE
8
BLACK
6
CONTINUOUS
10
57.3989
20
-77.0792
11
57.496
21
-77.069
0
LINE
8
BLACK
6
CONTINUOUS
10
57.496
20
-77.069
11
57.4961
21
-77.069
0
LINE
8
BLACK
6
CONTINUOUS
10
57.4961
20
-77.069
11
57.4963
21
-77.069
0
LINE
8
BLACK
6
CONTINUOUS
10
57.4963
20
-77.069
11
57.4965
21
-77.069
0
LINE
8
BLACK
6
CONTINUOUS
10
57.4965
20
-77.069
11
57.4997
21
-77.069
0
LINE
8
BLACK
6
CONTINUOUS
10
57.4997
20
-77.069
11
57.4998
21
-77.069
0
LINE
8
BLACK
6
CONTINUOUS
10
57.4998
20
-77.069
11
70.5002
21
-77.069
0
LINE
8
BLACK
6
CONTINUOUS
10
70.5002
20
-77.069
11
70.5005
21
-77.069
0
LINE
8
BLACK
6
CONTINUOUS
10
70.5005
20
-77.069
11
70.5005
21
-77.069
0
LINE
8
BLACK
6
CONTINUOUS
10
70.5005
20
-77.069
11
70.5976
21
-77.0785
0
LINE
8
BLACK
6
CONTINUOUS
10
70.5976
20
-77.0785
11
70.5977
21
-77.0785
0
LINE
8
BLACK
6
CONTINUOUS
10
70.5977
20
-77.0785
11
70.5982
21
-77.0787
0
LINE
8
BLACK
6
CONTINUOUS
10
70.5982
20
-77.0787
11
70.5986
21
-77.0787
0
LINE
8
BLACK
6
CONTINUOUS
10
70.5986
20
-77.0787
11
70.5986
21
-77.0788
0
LINE
8
BLACK
6
CONTINUOUS
10
70.5986
20
-77.0788
11
70.5986
21
-77.0788
0
LINE
8
BLACK
6
CONTINUOUS
10
70.5986
20
-77.0788
11
70.5986
21
-77.0788
0
LINE
8
BLACK
6
CONTINUOUS
10
70.5986
20
-77.0788
11
70.692
21
-77.1069
0
LINE
8
BLACK
6
CONTINUOUS
10
70.692
20
-77.1069
11
70.692
21
-77.1069
0
LINE
8
BLACK
6
CONTINUOUS
10
70.692
20
-77.1069
11
70.692
21
-77.1069
0
LINE
8
BLACK
6
CONTINUOUS
10
70.692
20
-77.1069
11
70.692
21
-77.107
0
LINE
8
BLACK
6
CONTINUOUS
10
70.692
20
-77.107
11
70.6925
21
-77.1071
0
LINE
8
BLACK
6
CONTINUOUS
10
70.6925
20
-77.1071
11
70.6929
21
-77.1073
0
LINE
8
BLACK
6
CONTINUOUS
10
70.6929
20
-77.1073
11
70.6929
21
-77.1073
0
LINE
8
BLACK
6
CONTINUOUS
10
70.6929
20
-77.1073
11
70.6929
21
-77.1073
0
LINE
8
BLACK
6
CONTINUOUS
10
70.6929
20
-77.1073
11
70.6929
21
-77.1073
0
LINE
8
BLACK
6
CONTINUOUS
10
70.6929
20
-77.1073
11
70.779
21
-77.1531
0
LINE
8
BLACK
6
CONTINUOUS
10
70.779
20
-77.1531
11
70.779
21
-77.1531
0
LINE
8
BLACK
6
CONTINUOUS
10
70.779
20
-77.1531
11
70.7791
21
-77.1531
0
LINE
8
BLACK
6
CONTINUOUS
10
70.7791
20
-77.1531
11
70.7791
21
-77.1532
0
LINE
8
BLACK
6
CONTINUOUS
10
70.7791
20
-77.1532
11
70.7795
21
-77.1534
0
LINE
8
BLACK
6
CONTINUOUS
10
70.7795
20
-77.1534
11
70.7799
21
-77.1537
0
LINE
8
BLACK
6
CONTINUOUS
10
70.7799
20
-77.1537
11
70.8555
21
-77.2153
0
LINE
8
BLACK
6
CONTINUOUS
10
70.8555
20
-77.2153
11
70.8555
21
-77.2154
0
LINE
8
BLACK
6
CONTINUOUS
10
70.8555
20
-77.2154
11
70.8559
21
-77.2157
0
LINE
8
BLACK
6
CONTINUOUS
10
70.8559
20
-77.2157
11
70.8562
21
-77.216
0
LINE
8
BLACK
6
CONTINUOUS
10
70.8562
20
-77.216
11
70.9184
21
-77.2912
0
LINE
8
BLACK
6
CONTINUOUS
10
70.9184
20
-77.2912
11
70.9184
21
-77.2913
0
LINE
8
BLACK
6
CONTINUOUS
10
70.9184
20
-77.2913
11
70.9187
21
-77.2916
0
LINE
8
BLACK
6
CONTINUOUS
10
70.9187
20
-77.2916
11
70.9189
21
-77.292
0
LINE
8
BLACK
6
CONTINUOUS
10
70.9189
20
-77.292
11
70.9653
21
-77.3779
0
LINE
8
BLACK
6
CONTINUOUS
10
70.9653
20
-77.3779
11
70.9654
21
-77.3779
0
LINE
8
BLACK
6
CONTINUOUS
10
70.9654
20
-77.3779
11
70.9655
21
-77.3784
0
LINE
8
BLACK
6
CONTINUOUS
10
70.9655
20
-77.3784
11
70.9657
21
-77.3788
0
LINE
8
BLACK
6
CONTINUOUS
10
70.9657
20
-77.3788
11
70.9946
21
-77.472
0
LINE
8
BLACK
6
CONTINUOUS
10
70.9946
20
-77.472
11
70.9946
21
-77.472
0
LINE
8
BLACK
6
CONTINUOUS
10
70.9946
20
-77.472
11
70.9946
21
-77.472
0
LINE
8
BLACK
6
CONTINUOUS
10
70.9946
20
-77.472
11
70.9946
21
-77.472
0
LINE
8
BLACK
6
CONTINUOUS
10
70.9946
20
-77.472
11
70.9947
21
-77.4725
0
LINE
8
BLACK
6
CONTINUOUS
10
70.9947
20
-77.4725
11
70.9948
21
-77.4729
0
LINE
8
BLACK
6
CONTINUOUS
10
70.9948
20
-77.4729
11
71.005
21
-77.57
0
LINE
8
BLACK
6
CONTINUOUS
10
71.005
20
-77.57
11
71.005
21
-77.5701
0
LINE
8
BLACK
6
CONTINUOUS
10
71.005
20
-77.5701
11
71.005
21
-77.5703
0
LINE
8
BLACK
6
CONTINUOUS
10
71.005
20
-77.5703
11
71.005
21
-77.5705
0
LINE
8
BLACK
6
CONTINUOUS
10
71.005
20
-77.5705
11
71.005
21
-77.5737
0
LINE
8
BLACK
6
CONTINUOUS
10
71.005
20
-77.5737
11
71.005
21
-77.5738
0
LINE
8
BLACK
6
CONTINUOUS
10
71.005
20
-77.5738
11
71.005
21
-90.5742
0
LINE
8
BLACK
6
CONTINUOUS
10
71.005
20
-90.5742
11
71.005
21
-90.5745
0
LINE
8
BLACK
6
CONTINUOUS
10
71.005
20
-90.5745
11
71.005
21
-90.5745
0
LINE
8
BLACK
6
CONTINUOUS
10
71.005
20
-90.5745
11
70.9955
21
-90.6716
0
LINE
8
BLACK
6
CONTINUOUS
10
70.9955
20
-90.6716
11
70.9954
21
-90.6717
0
LINE
8
BLACK
6
CONTINUOUS
10
70.9954
20
-90.6717
11
70.9953
21
-90.6722
0
LINE
8
BLACK
6
CONTINUOUS
10
70.9953
20
-90.6722
11
70.9953
21
-90.6726
0
LINE
8
BLACK
6
CONTINUOUS
10
70.9953
20
-90.6726
11
70.9671
21
-90.766
0
LINE
8
BLACK
6
CONTINUOUS
10
70.9671
20
-90.766
11
70.9671
21
-90.766
0
LINE
8
BLACK
6
CONTINUOUS
10
70.9671
20
-90.766
11
70.9671
21
-90.766
0
LINE
8
BLACK
6
CONTINUOUS
10
70.9671
20
-90.766
11
70.967
21
-90.766
0
LINE
8
BLACK
6
CONTINUOUS
10
70.967
20
-90.766
11
70.9669
21
-90.7665
0
LINE
8
BLACK
6
CONTINUOUS
10
70.9669
20
-90.7665
11
70.9667
21
-90.7669
0
LINE
8
BLACK
6
CONTINUOUS
10
70.9667
20
-90.7669
11
70.9209
21
-90.853
0
LINE
8
BLACK
6
CONTINUOUS
10
70.9209
20
-90.853
11
70.9209
21
-90.853
0
LINE
8
BLACK
6
CONTINUOUS
10
70.9209
20
-90.853
11
70.9209
21
-90.8531
0
LINE
8
BLACK
6
CONTINUOUS
10
70.9209
20
-90.8531
11
70.9208
21
-90.8531
0
LINE
8
BLACK
6
CONTINUOUS
10
70.9208
20
-90.8531
11
70.9206
21
-90.8535
0
LINE
8
BLACK
6
CONTINUOUS
10
70.9206
20
-90.8535
11
70.9203
21
-90.8539
0
LINE
8
BLACK
6
CONTINUOUS
10
70.9203
20
-90.8539
11
70.8587
21
-90.9295
0
LINE
8
BLACK
6
CONTINUOUS
10
70.8587
20
-90.9295
11
70.8586
21
-90.9295
0
LINE
8
BLACK
6
CONTINUOUS
10
70.8586
20
-90.9295
11
70.8583
21
-90.9299
0
LINE
8
BLACK
6
CONTINUOUS
10
70.8583
20
-90.9299
11
70.858
21
-90.9302
0
LINE
8
BLACK
6
CONTINUOUS
10
70.858
20
-90.9302
11
70.7828
21
-90.9924
0
LINE
8
BLACK
6
CONTINUOUS
10
70.7828
20
-90.9924
11
70.7827
21
-90.9924
0
LINE
8
BLACK
6
CONTINUOUS
10
70.7827
20
-90.9924
11
70.7823
21
-90.9927
0
LINE
8
BLACK
6
CONTINUOUS
10
70.7823
20
-90.9927
11
70.782
21
-90.9929
0
LINE
8
BLACK
6
CONTINUOUS
10
70.782
20
-90.9929
11
70.6961
21
-91.0393
0
LINE
8
BLACK
6
CONTINUOUS
10
70.6961
20
-91.0393
11
70.6961
21
-91.0394
0
LINE
8
BLACK
6
CONTINUOUS
10
70.6961
20
-91.0394
11
70.6956
21
-91.0396
0
LINE
8
BLACK
6
CONTINUOUS
10
70.6956
20
-91.0396
11
70.6952
21
-91.0397
0
LINE
8
BLACK
6
CONTINUOUS
10
70.6952
20
-91.0397
11
70.6952
21
-91.0397
0
LINE
8
BLACK
6
CONTINUOUS
10
70.6952
20
-91.0397
11
70.6952
21
-91.0397
0
LINE
8
BLACK
6
CONTINUOUS
10
70.6952
20
-91.0397
11
70.6952
21
-91.0397
0
LINE
8
BLACK
6
CONTINUOUS
10
70.6952
20
-91.0397
11
70.602
21
-91.0686
0
LINE
8
BLACK
6
CONTINUOUS
10
70.602
20
-91.0686
11
70.602
21
-91.0686
0
LINE
8
BLACK
6
CONTINUOUS
10
70.602
20
-91.0686
11
70.602
21
-91.0686
0
LINE
8
BLACK
6
CONTINUOUS
10
57.5
20
-77.079
11
57.4968
21
-77.079
0
LINE
8
BLACK
6
CONTINUOUS
10
57.4968
20
-77.079
11
57.4005
21
-77.0891
0
LINE
8
BLACK
6
CONTINUOUS
10
57.4005
20
-77.0891
11
57.3082
21
-77.1177
0
LINE
8
BLACK
6
CONTINUOUS
10
57.3082
20
-77.1177
11
57.2232
21
-77.1636
0
LINE
8
BLACK
6
CONTINUOUS
10
57.2232
20
-77.1636
11
57.1488
21
-77.2252
0
LINE
8
BLACK
6
CONTINUOUS
10
57.1488
20
-77.2252
11
57.0877
21
-77.3001
0
LINE
8
BLACK
6
CONTINUOUS
10
57.0877
20
-77.3001
11
57.0424
21
-77.3854
0
LINE
8
BLACK
6
CONTINUOUS
10
57.0424
20
-77.3854
11
57.0145
21
-77.4779
0
LINE
8
BLACK
6
CONTINUOUS
10
57.0145
20
-77.4779
11
57.005
21
-77.5742
0
LINE
8
BLACK
6
CONTINUOUS
10
57.005
20
-77.5742
11
57.005
21
-90.5649
0
LINE
8
BLACK
6
CONTINUOUS
10
57.005
20
-90.5649
11
57.005
21
-90.5681
0
LINE
8
BLACK
6
CONTINUOUS
10
57.005
20
-90.5681
11
57.0151
21
-90.6645
0
LINE
8
BLACK
6
CONTINUOUS
10
57.0151
20
-90.6645
11
57.0437
21
-90.7567
0
LINE
8
BLACK
6
CONTINUOUS
10
57.0437
20
-90.7567
11
57.0896
21
-90.8417
0
LINE
8
BLACK
6
CONTINUOUS
10
57.0896
20
-90.8417
11
57.1512
21
-90.9161
0
LINE
8
BLACK
6
CONTINUOUS
10
57.1512
20
-90.9161
11
57.2261
21
-90.9772
0
LINE
8
BLACK
6
CONTINUOUS
10
57.2261
20
-90.9772
11
57.3114
21
-91.0225
0
LINE
8
BLACK
6
CONTINUOUS
10
57.3114
20
-91.0225
11
57.4039
21
-91.0505
0
LINE
8
BLACK
6
CONTINUOUS
10
57.4039
20
-91.0505
11
57.5002
21
-91.0599
0
LINE
8
BLACK
6
CONTINUOUS
10
57.5002
20
-91.0599
11
70.5
21
-91.069
0
LINE
8
BLACK
6
CONTINUOUS
10
70.5
20
-91.069
11
70.5032
21
-91.069
0
LINE
8
BLACK
6
CONTINUOUS
10
70.5032
20
-91.069
11
70.5995
21
-91.0589
0
LINE
8
BLACK
6
CONTINUOUS
10
70.5995
20
-91.0589
11
70.6918
21
-91.0303
0
LINE
8
BLACK
6
CONTINUOUS
10
70.6918
20
-91.0303
11
70.7768
21
-90.9844
0
LINE
8
BLACK
6
CONTINUOUS
10
70.7768
20
-90.9844
11
70.8512
21
-90.9228
0
LINE
8
BLACK
6
CONTINUOUS
10
70.8512
20
-90.9228
11
70.9123
21
-90.8479
0
LINE
8
BLACK
6
CONTINUOUS
10
70.9123
20
-90.8479
11
70.9576
21
-90.7626
0
LINE
8
BLACK
6
CONTINUOUS
10
70.9576
20
-90.7626
11
70.9855
21
-90.6701
0
LINE
8
BLACK
6
CONTINUOUS
10
70.9855
20
-90.6701
11
70.995
21
-90.5737
0
LINE
8
BLACK
6
CONTINUOUS
10
70.995
20
-90.5737
11
70.995
21
-77.574
0
LINE
8
BLACK
6
CONTINUOUS
10
70.995
20
-77.574
11
70.995
21
-77.5708
0
LINE
8
BLACK
6
CONTINUOUS
10
70.995
20
-77.5708
11
70.9849
21
-77.4745
0
LINE
8
BLACK
6
CONTINUOUS
10
70.9849
20
-77.4745
11
70.9563
21
-77.3822
0
LINE
8
BLACK
6
CONTINUOUS
10
70.9563
20
-77.3822
11
70.9104
21
-77.2972
0
LINE
8
BLACK
6
CONTINUOUS
10
70.9104
20
-77.2972
11
70.8488
21
-77.2228
0
LINE
8
BLACK
6
CONTINUOUS
10
70.8488
20
-77.2228
11
70.7739
21
-77.1617
0
LINE
8
BLACK
6
CONTINUOUS
10
70.7739
20
-77.1617
11
70.6886
21
-77.1164
0
LINE
8
BLACK
6
CONTINUOUS
10
70.6886
20
-77.1164
11
70.5961
21
-77.0885
0
LINE
8
BLACK
6
CONTINUOUS
10
70.5961
20
-77.0885
11
70.4998
21
-77.079
0
LINE
8
BLACK
6
CONTINUOUS
10
70.4998
20
-77.079
11
57.5
21
-77.079
0
LINE
8
BLACK
6
CONTINUOUS
10
108.602
20
-89.4446
11
108.601
21
-89.4447
0
LINE
8
BLACK
6
CONTINUOUS
10
108.601
20
-89.4447
11
108.601
21
-89.4448
0
LINE
8
BLACK
6
CONTINUOUS
10
108.601
20
-89.4448
11
108.504
21
-89.455
0
LINE
8
BLACK
6
CONTINUOUS
10
108.504
20
-89.455
11
108.504
21
-89.455
0
LINE
8
BLACK
6
CONTINUOUS
10
108.504
20
-89.455
11
108.504
21
-89.455
0
LINE
8
BLACK
6
CONTINUOUS
10
108.504
20
-89.455
11
108.504
21
-89.455
0
LINE
8
BLACK
6
CONTINUOUS
10
108.504
20
-89.455
11
108.5
21
-89.455
0
LINE
8
BLACK
6
CONTINUOUS
10
108.5
20
-89.455
11
108.5
21
-89.455
0
LINE
8
BLACK
6
CONTINUOUS
10
108.5
20
-89.455
11
108.5
21
-89.455
0
LINE
8
BLACK
6
CONTINUOUS
10
108.5
20
-89.455
11
95.4998
21
-89.4459
0
LINE
8
BLACK
6
CONTINUOUS
10
95.4998
20
-89.4459
11
95.4995
21
-89.4459
0
LINE
8
BLACK
6
CONTINUOUS
10
95.4995
20
-89.4459
11
95.4995
21
-89.4459
0
LINE
8
BLACK
6
CONTINUOUS
10
95.4995
20
-89.4459
11
95.4024
21
-89.4364
0
LINE
8
BLACK
6
CONTINUOUS
10
95.4024
20
-89.4364
11
95.4023
21
-89.4364
0
LINE
8
BLACK
6
CONTINUOUS
10
95.4023
20
-89.4364
11
95.4018
21
-89.4363
0
LINE
8
BLACK
6
CONTINUOUS
10
95.4018
20
-89.4363
11
95.4014
21
-89.4362
0
LINE
8
BLACK
6
CONTINUOUS
10
95.4014
20
-89.4362
11
95.4014
21
-89.4362
0
LINE
8
BLACK
6
CONTINUOUS
10
95.4014
20
-89.4362
11
95.4014
21
-89.4362
0
LINE
8
BLACK
6
CONTINUOUS
10
95.4014
20
-89.4362
11
95.4014
21
-89.4362
0
LINE
8
BLACK
6
CONTINUOUS
10
95.4014
20
-89.4362
11
95.308
21
-89.408
0
LINE
8
BLACK
6
CONTINUOUS
10
95.308
20
-89.408
11
95.308
21
-89.408
0
LINE
8
BLACK
6
CONTINUOUS
10
95.308
20
-89.408
11
95.308
21
-89.408
0
LINE
8
BLACK
6
CONTINUOUS
10
95.308
20
-89.408
11
95.308
21
-89.408
0
LINE
8
BLACK
6
CONTINUOUS
10
95.308
20
-89.408
11
95.3075
21
-89.4078
0
LINE
8
BLACK
6
CONTINUOUS
10
95.3075
20
-89.4078
11
95.3071
21
-89.4076
0
LINE
8
BLACK
6
CONTINUOUS
10
95.3071
20
-89.4076
11
95.3071
21
-89.4076
0
LINE
8
BLACK
6
CONTINUOUS
10
95.3071
20
-89.4076
11
95.3071
21
-89.4076
0
LINE
8
BLACK
6
CONTINUOUS
10
95.3071
20
-89.4076
11
95.3071
21
-89.4076
0
LINE
8
BLACK
6
CONTINUOUS
10
95.3071
20
-89.4076
11
95.221
21
-89.3618
0
LINE
8
BLACK
6
CONTINUOUS
10
95.221
20
-89.3618
11
95.221
21
-89.3618
0
LINE
8
BLACK
6
CONTINUOUS
10
95.221
20
-89.3618
11
95.2209
21
-89.3618
0
LINE
8
BLACK
6
CONTINUOUS
10
95.2209
20
-89.3618
11
95.2209
21
-89.3618
0
LINE
8
BLACK
6
CONTINUOUS
10
95.2209
20
-89.3618
11
95.2205
21
-89.3615
0
LINE
8
BLACK
6
CONTINUOUS
10
95.2205
20
-89.3615
11
95.2201
21
-89.3613
0
LINE
8
BLACK
6
CONTINUOUS
10
95.2201
20
-89.3613
11
95.1445
21
-89.2996
0
LINE
8
BLACK
6
CONTINUOUS
10
95.1445
20
-89.2996
11
95.1445
21
-89.2995
0
LINE
8
BLACK
6
CONTINUOUS
10
95.1445
20
-89.2995
11
95.1441
21
-89.2992
0
LINE
8
BLACK
6
CONTINUOUS
10
95.1441
20
-89.2992
11
95.1438
21
-89.2989
0
LINE
8
BLACK
6
CONTINUOUS
10
95.1438
20
-89.2989
11
95.0816
21
-89.2237
0
LINE
8
BLACK
6
CONTINUOUS
10
95.0816
20
-89.2237
11
95.0816
21
-89.2237
0
LINE
8
BLACK
6
CONTINUOUS
10
95.0816
20
-89.2237
11
95.0813
21
-89.2233
0
LINE
8
BLACK
6
CONTINUOUS
10
95.0813
20
-89.2233
11
95.0811
21
-89.2229
0
LINE
8
BLACK
6
CONTINUOUS
10
95.0811
20
-89.2229
11
95.0347
21
-89.1371
0
LINE
8
BLACK
6
CONTINUOUS
10
95.0347
20
-89.1371
11
95.0346
21
-89.137
0
LINE
8
BLACK
6
CONTINUOUS
10
95.0346
20
-89.137
11
95.0344
21
-89.1365
0
LINE
8
BLACK
6
CONTINUOUS
10
95.0344
20
-89.1365
11
95.0343
21
-89.1362
0
LINE
8
BLACK
6
CONTINUOUS
10
95.0343
20
-89.1362
11
95.0343
21
-89.1361
0
LINE
8
BLACK
6
CONTINUOUS
10
95.0343
20
-89.1361
11
95.0343
21
-89.1361
0
LINE
8
BLACK
6
CONTINUOUS
10
95.0343
20
-89.1361
11
95.0343
21
-89.1361
0
LINE
8
BLACK
6
CONTINUOUS
10
95.0343
20
-89.1361
11
95.0054
21
-89.0429
0
LINE
8
BLACK
6
CONTINUOUS
10
95.0054
20
-89.0429
11
95.0054
21
-89.0429
0
LINE
8
BLACK
6
CONTINUOUS
10
95.0054
20
-89.0429
11
95.0053
21
-89.0424
0
LINE
8
BLACK
6
CONTINUOUS
10
95.0053
20
-89.0424
11
95.0052
21
-89.042
0
LINE
8
BLACK
6
CONTINUOUS
10
95.0052
20
-89.042
11
94.995
21
-88.9449
0
LINE
8
BLACK
6
CONTINUOUS
10
94.995
20
-88.9449
11
94.995
21
-88.9449
0
LINE
8
BLACK
6
CONTINUOUS
10
94.995
20
-88.9449
11
94.995
21
-88.9446
0
LINE
8
BLACK
6
CONTINUOUS
10
94.995
20
-88.9446
11
94.995
21
-88.9444
0
LINE
8
BLACK
6
CONTINUOUS
10
94.995
20
-88.9444
11
94.995
21
-88.9409
0
LINE
8
BLACK
6
CONTINUOUS
10
94.995
20
-88.9409
11
94.995
21
-88.9409
0
LINE
8
BLACK
6
CONTINUOUS
10
94.995
20
-88.9409
11
94.995
21
-88.9409
0
LINE
8
BLACK
6
CONTINUOUS
10
94.995
20
-88.9409
11
94.995
21
-75.9498
0
LINE
8
BLACK
6
CONTINUOUS
10
94.995
20
-75.9498
11
94.995
21
-75.9495
0
LINE
8
BLACK
6
CONTINUOUS
10
94.995
20
-75.9495
11
95.0045
21
-75.8524
0
LINE
8
BLACK
6
CONTINUOUS
10
95.0045
20
-75.8524
11
95.0045
21
-75.8523
0
LINE
8
BLACK
6
CONTINUOUS
10
95.0045
20
-75.8523
11
95.0047
21
-75.8518
0
LINE
8
BLACK
6
CONTINUOUS
10
95.0047
20
-75.8518
11
95.0047
21
-75.8514
0
LINE
8
BLACK
6
CONTINUOUS
10
95.0047
20
-75.8514
11
95.0329
21
-75.758
0
LINE
8
BLACK
6
CONTINUOUS
10
95.0329
20
-75.758
11
95.0329
21
-75.758
0
LINE
8
BLACK
6
CONTINUOUS
10
95.0329
20
-75.758
11
95.0329
21
-75.758
0
LINE
8
BLACK
6
CONTINUOUS
10
95.0329
20
-75.758
11
95.033
21
-75.758
0
LINE
8
BLACK
6
CONTINUOUS
10
95.033
20
-75.758
11
95.0331
21
-75.7575
0
LINE
8
BLACK
6
CONTINUOUS
10
95.0331
20
-75.7575
11
95.0333
21
-75.7571
0
LINE
8
BLACK
6
CONTINUOUS
10
95.0333
20
-75.7571
11
95.0791
21
-75.671
0
LINE
8
BLACK
6
CONTINUOUS
10
95.0791
20
-75.671
11
95.0791
21
-75.671
0
LINE
8
BLACK
6
CONTINUOUS
10
95.0791
20
-75.671
11
95.0791
21
-75.6709
0
LINE
8
BLACK
6
CONTINUOUS
10
95.0791
20
-75.6709
11
95.0792
21
-75.6709
0
LINE
8
BLACK
6
CONTINUOUS
10
95.0792
20
-75.6709
11
95.0794
21
-75.6705
0
LINE
8
BLACK
6
CONTINUOUS
10
95.0794
20
-75.6705
11
95.0797
21
-75.6701
0
LINE
8
BLACK
6
CONTINUOUS
10
95.0797
20
-75.6701
11
95.1413
21
-75.5945
0
LINE
8
BLACK
6
CONTINUOUS
10
95.1413
20
-75.5945
11
95.1414
21
-75.5945
0
LINE
8
BLACK
6
CONTINUOUS
10
95.1414
20
-75.5945
11
95.1417
21
-75.5941
0
LINE
8
BLACK
6
CONTINUOUS
10
95.1417
20
-75.5941
11
95.142
21
-75.5938
0
LINE
8
BLACK
6
CONTINUOUS
10
95.142
20
-75.5938
11
95.2172
21
-75.5316
0
LINE
8
BLACK
6
CONTINUOUS
10
95.2172
20
-75.5316
11
95.2173
21
-75.5316
0
LINE
8
BLACK
6
CONTINUOUS
10
95.2173
20
-75.5316
11
95.2176
21
-75.5313
0
LINE
8
BLACK
6
CONTINUOUS
10
95.2176
20
-75.5313
11
95.218
21
-75.5311
0
LINE
8
BLACK
6
CONTINUOUS
10
95.218
20
-75.5311
11
95.3039
21
-75.4847
0
LINE
8
BLACK
6
CONTINUOUS
10
95.3039
20
-75.4847
11
95.3039
21
-75.4846
0
LINE
8
BLACK
6
CONTINUOUS
10
95.3039
20
-75.4846
11
95.3044
21
-75.4845
0
LINE
8
BLACK
6
CONTINUOUS
10
95.3044
20
-75.4845
11
95.3048
21
-75.4843
0
LINE
8
BLACK
6
CONTINUOUS
10
95.3048
20
-75.4843
11
95.398
21
-75.4554
0
LINE
8
BLACK
6
CONTINUOUS
10
95.398
20
-75.4554
11
95.398
21
-75.4554
0
LINE
8
BLACK
6
CONTINUOUS
10
95.398
20
-75.4554
11
95.398
21
-75.4554
0
LINE
8
BLACK
6
CONTINUOUS
10
95.398
20
-75.4554
11
95.398
21
-75.4554
0
LINE
8
BLACK
6
CONTINUOUS
10
95.398
20
-75.4554
11
95.3985
21
-75.4553
0
LINE
8
BLACK
6
CONTINUOUS
10
95.3985
20
-75.4553
11
95.3989
21
-75.4552
0
LINE
8
BLACK
6
CONTINUOUS
10
95.3989
20
-75.4552
11
95.496
21
-75.445
0
LINE
8
BLACK
6
CONTINUOUS
10
95.496
20
-75.445
11
95.4961
21
-75.445
0
LINE
8
BLACK
6
CONTINUOUS
10
95.4961
20
-75.445
11
95.4963
21
-75.445
0
LINE
8
BLACK
6
CONTINUOUS
10
95.4963
20
-75.445
11
95.4965
21
-75.445
0
LINE
8
BLACK
6
CONTINUOUS
10
95.4965
20
-75.445
11
95.4997
21
-75.445
0
LINE
8
BLACK
6
CONTINUOUS
10
95.4997
20
-75.445
11
95.4998
21
-75.445
0
LINE
8
BLACK
6
CONTINUOUS
10
95.4998
20
-75.445
11
108.5
21
-75.445
0
LINE
8
BLACK
6
CONTINUOUS
10
108.5
20
-75.445
11
108.5
21
-75.445
0
LINE
8
BLACK
6
CONTINUOUS
10
108.5
20
-75.445
11
108.5
21
-75.445
0
LINE
8
BLACK
6
CONTINUOUS
10
108.5
20
-75.445
11
108.598
21
-75.4545
0
LINE
8
BLACK
6
CONTINUOUS
10
108.598
20
-75.4545
11
108.598
21
-75.4545
0
LINE
8
BLACK
6
CONTINUOUS
10
108.598
20
-75.4545
11
108.598
21
-75.4547
0
LINE
8
BLACK
6
CONTINUOUS
10
108.598
20
-75.4547
11
108.599
21
-75.4547
0
LINE
8
BLACK
6
CONTINUOUS
10
108.599
20
-75.4547
11
108.599
21
-75.4548
0
LINE
8
BLACK
6
CONTINUOUS
10
108.599
20
-75.4548
11
108.599
21
-75.4548
0
LINE
8
BLACK
6
CONTINUOUS
10
108.599
20
-75.4548
11
108.599
21
-75.4548
0
LINE
8
BLACK
6
CONTINUOUS
10
108.599
20
-75.4548
11
108.692
21
-75.4829
0
LINE
8
BLACK
6
CONTINUOUS
10
108.692
20
-75.4829
11
108.692
21
-75.4829
0
LINE
8
BLACK
6
CONTINUOUS
10
108.692
20
-75.4829
11
108.692
21
-75.4829
0
LINE
8
BLACK
6
CONTINUOUS
10
108.692
20
-75.4829
11
108.692
21
-75.483
0
LINE
8
BLACK
6
CONTINUOUS
10
108.692
20
-75.483
11
108.692
21
-75.4831
0
LINE
8
BLACK
6
CONTINUOUS
10
108.692
20
-75.4831
11
108.693
21
-75.4833
0
LINE
8
BLACK
6
CONTINUOUS
10
108.693
20
-75.4833
11
108.693
21
-75.4833
0
LINE
8
BLACK
6
CONTINUOUS
10
108.693
20
-75.4833
11
108.693
21
-75.4833
0
LINE
8
BLACK
6
CONTINUOUS
10
108.693
20
-75.4833
11
108.693
21
-75.4833
0
LINE
8
BLACK
6
CONTINUOUS
10
108.693
20
-75.4833
11
108.779
21
-75.5291
0
LINE
8
BLACK
6
CONTINUOUS
10
108.779
20
-75.5291
11
108.779
21
-75.5291
0
LINE
8
BLACK
6
CONTINUOUS
10
108.779
20
-75.5291
11
108.779
21
-75.5291
0
LINE
8
BLACK
6
CONTINUOUS
10
108.779
20
-75.5291
11
108.779
21
-75.5292
0
LINE
8
BLACK
6
CONTINUOUS
10
108.779
20
-75.5292
11
108.779
21
-75.5294
0
LINE
8
BLACK
6
CONTINUOUS
10
108.779
20
-75.5294
11
108.78
21
-75.5297
0
LINE
8
BLACK
6
CONTINUOUS
10
108.78
20
-75.5297
11
108.855
21
-75.5913
0
LINE
8
BLACK
6
CONTINUOUS
10
108.855
20
-75.5913
11
108.856
21
-75.5914
0
LINE
8
BLACK
6
CONTINUOUS
10
108.856
20
-75.5914
11
108.856
21
-75.5917
0
LINE
8
BLACK
6
CONTINUOUS
10
108.856
20
-75.5917
11
108.856
21
-75.592
0
LINE
8
BLACK
6
CONTINUOUS
10
108.856
20
-75.592
11
108.918
21
-75.6672
0
LINE
8
BLACK
6
CONTINUOUS
10
108.918
20
-75.6672
11
108.918
21
-75.6673
0
LINE
8
BLACK
6
CONTINUOUS
10
108.918
20
-75.6673
11
108.919
21
-75.6676
0
LINE
8
BLACK
6
CONTINUOUS
10
108.919
20
-75.6676
11
108.919
21
-75.668
0
LINE
8
BLACK
6
CONTINUOUS
10
108.919
20
-75.668
11
108.965
21
-75.7539
0
LINE
8
BLACK
6
CONTINUOUS
10
108.965
20
-75.7539
11
108.965
21
-75.7539
0
LINE
8
BLACK
6
CONTINUOUS
10
108.965
20
-75.7539
11
108.966
21
-75.7544
0
LINE
8
BLACK
6
CONTINUOUS
10
108.966
20
-75.7544
11
108.966
21
-75.7548
0
LINE
8
BLACK
6
CONTINUOUS
10
108.966
20
-75.7548
11
108.995
21
-75.848
0
LINE
8
BLACK
6
CONTINUOUS
10
108.995
20
-75.848
11
108.995
21
-75.848
0
LINE
8
BLACK
6
CONTINUOUS
10
108.995
20
-75.848
11
108.995
21
-75.848
0
LINE
8
BLACK
6
CONTINUOUS
10
108.995
20
-75.848
11
108.995
21
-75.848
0
LINE
8
BLACK
6
CONTINUOUS
10
108.995
20
-75.848
11
108.995
21
-75.8485
0
LINE
8
BLACK
6
CONTINUOUS
10
108.995
20
-75.8485
11
108.995
21
-75.8489
0
LINE
8
BLACK
6
CONTINUOUS
10
108.995
20
-75.8489
11
109.005
21
-75.946
0
LINE
8
BLACK
6
CONTINUOUS
10
109.005
20
-75.946
11
109.005
21
-75.9461
0
LINE
8
BLACK
6
CONTINUOUS
10
109.005
20
-75.9461
11
109.005
21
-75.9463
0
LINE
8
BLACK
6
CONTINUOUS
10
109.005
20
-75.9463
11
109.005
21
-75.9465
0
LINE
8
BLACK
6
CONTINUOUS
10
109.005
20
-75.9465
11
109.005
21
-75.9497
0
LINE
8
BLACK
6
CONTINUOUS
10
109.005
20
-75.9497
11
109.005
21
-75.9498
0
LINE
8
BLACK
6
CONTINUOUS
10
109.005
20
-75.9498
11
109.005
21
-88.9502
0
LINE
8
BLACK
6
CONTINUOUS
10
109.005
20
-88.9502
11
109.005
21
-88.9505
0
LINE
8
BLACK
6
CONTINUOUS
10
109.005
20
-88.9505
11
109.005
21
-88.9505
0
LINE
8
BLACK
6
CONTINUOUS
10
109.005
20
-88.9505
11
108.995
21
-89.0476
0
LINE
8
BLACK
6
CONTINUOUS
10
108.995
20
-89.0476
11
108.995
21
-89.0477
0
LINE
8
BLACK
6
CONTINUOUS
10
108.995
20
-89.0477
11
108.995
21
-89.0482
0
LINE
8
BLACK
6
CONTINUOUS
10
108.995
20
-89.0482
11
108.995
21
-89.0486
0
LINE
8
BLACK
6
CONTINUOUS
10
108.995
20
-89.0486
11
108.967
21
-89.142
0
LINE
8
BLACK
6
CONTINUOUS
10
108.967
20
-89.142
11
108.967
21
-89.142
0
LINE
8
BLACK
6
CONTINUOUS
10
108.967
20
-89.142
11
108.967
21
-89.142
0
LINE
8
BLACK
6
CONTINUOUS
10
108.967
20
-89.142
11
108.967
21
-89.142
0
LINE
8
BLACK
6
CONTINUOUS
10
108.967
20
-89.142
11
108.967
21
-89.1425
0
LINE
8
BLACK
6
CONTINUOUS
10
108.967
20
-89.1425
11
108.967
21
-89.1429
0
LINE
8
BLACK
6
CONTINUOUS
10
108.967
20
-89.1429
11
108.921
21
-89.229
0
LINE
8
BLACK
6
CONTINUOUS
10
108.921
20
-89.229
11
108.921
21
-89.229
0
LINE
8
BLACK
6
CONTINUOUS
10
108.921
20
-89.229
11
108.921
21
-89.2291
0
LINE
8
BLACK
6
CONTINUOUS
10
108.921
20
-89.2291
11
108.921
21
-89.2291
0
LINE
8
BLACK
6
CONTINUOUS
10
108.921
20
-89.2291
11
108.921
21
-89.2295
0
LINE
8
BLACK
6
CONTINUOUS
10
108.921
20
-89.2295
11
108.92
21
-89.2299
0
LINE
8
BLACK
6
CONTINUOUS
10
108.92
20
-89.2299
11
108.859
21
-89.3055
0
LINE
8
BLACK
6
CONTINUOUS
10
108.859
20
-89.3055
11
108.859
21
-89.3055
0
LINE
8
BLACK
6
CONTINUOUS
10
108.859
20
-89.3055
11
108.858
21
-89.3059
0
LINE
8
BLACK
6
CONTINUOUS
10
108.858
20
-89.3059
11
108.858
21
-89.3062
0
LINE
8
BLACK
6
CONTINUOUS
10
108.858
20
-89.3062
11
108.783
21
-89.3684
0
LINE
8
BLACK
6
CONTINUOUS
10
108.783
20
-89.3684
11
108.783
21
-89.3684
0
LINE
8
BLACK
6
CONTINUOUS
10
108.783
20
-89.3684
11
108.782
21
-89.3687
0
LINE
8
BLACK
6
CONTINUOUS
10
108.782
20
-89.3687
11
108.782
21
-89.3689
0
LINE
8
BLACK
6
CONTINUOUS
10
108.782
20
-89.3689
11
108.696
21
-89.4153
0
LINE
8
BLACK
6
CONTINUOUS
10
108.696
20
-89.4153
11
108.696
21
-89.4154
0
LINE
8
BLACK
6
CONTINUOUS
10
108.696
20
-89.4154
11
108.696
21
-89.4156
0
LINE
8
BLACK
6
CONTINUOUS
10
108.696
20
-89.4156
11
108.695
21
-89.4157
0
LINE
8
BLACK
6
CONTINUOUS
10
108.695
20
-89.4157
11
108.695
21
-89.4157
0
LINE
8
BLACK
6
CONTINUOUS
10
108.695
20
-89.4157
11
108.695
21
-89.4157
0
LINE
8
BLACK
6
CONTINUOUS
10
108.695
20
-89.4157
11
108.695
21
-89.4157
0
LINE
8
BLACK
6
CONTINUOUS
10
108.695
20
-89.4157
11
108.602
21
-89.4446
0
LINE
8
BLACK
6
CONTINUOUS
10
108.602
20
-89.4446
11
108.602
21
-89.4446
0
LINE
8
BLACK
6
CONTINUOUS
10
108.602
20
-89.4446
11
108.602
21
-89.4446
0
LINE
8
BLACK
6
CONTINUOUS
10
95.5
20
-75.455
11
95.4968
21
-75.455
0
LINE
8
BLACK
6
CONTINUOUS
10
95.4968
20
-75.455
11
95.4005
21
-75.4651
0
LINE
8
BLACK
6
CONTINUOUS
10
95.4005
20
-75.4651
11
95.3082
21
-75.4937
0
LINE
8
BLACK
6
CONTINUOUS
10
95.3082
20
-75.4937
11
95.2232
21
-75.5396
0
LINE
8
BLACK
6
CONTINUOUS
10
95.2232
20
-75.5396
11
95.1488
21
-75.6012
0
LINE
8
BLACK
6
CONTINUOUS
10
95.1488
20
-75.6012
11
95.0877
21
-75.6761
0
LINE
8
BLACK
6
CONTINUOUS
10
95.0877
20
-75.6761
11
95.0424
21
-75.7614
0
LINE
8
BLACK
6
CONTINUOUS
10
95.0424
20
-75.7614
11
95.0145
21
-75.8539
0
LINE
8
BLACK
6
CONTINUOUS
10
95.0145
20
-75.8539
11
95.005
21
-75.9502
0
LINE
8
BLACK
6
CONTINUOUS
10
95.005
20
-75.9502
11
95.005
21
-88.9409
0
LINE
8
BLACK
6
CONTINUOUS
10
95.005
20
-88.9409
11
95.005
21
-88.9441
0
LINE
8
BLACK
6
CONTINUOUS
10
95.005
20
-88.9441
11
95.0151
21
-89.0405
0
LINE
8
BLACK
6
CONTINUOUS
10
95.0151
20
-89.0405
11
95.0437
21
-89.1327
0
LINE
8
BLACK
6
CONTINUOUS
10
95.0437
20
-89.1327
11
95.0896
21
-89.2177
0
LINE
8
BLACK
6
CONTINUOUS
10
95.0896
20
-89.2177
11
95.1512
21
-89.2921
0
LINE
8
BLACK
6
CONTINUOUS
10
95.1512
20
-89.2921
11
95.2261
21
-89.3532
0
LINE
8
BLACK
6
CONTINUOUS
10
95.2261
20
-89.3532
11
95.3114
21
-89.3986
0
LINE
8
BLACK
6
CONTINUOUS
10
95.3114
20
-89.3986
11
95.4039
21
-89.4265
0
LINE
8
BLACK
6
CONTINUOUS
10
95.4039
20
-89.4265
11
95.5002
21
-89.4359
0
LINE
8
BLACK
6
CONTINUOUS
10
95.5002
20
-89.4359
11
108.5
21
-89.445
0
LINE
8
BLACK
6
CONTINUOUS
10
108.5
20
-89.445
11
108.503
21
-89.445
0
LINE
8
BLACK
6
CONTINUOUS
10
108.503
20
-89.445
11
108.6
21
-89.4349
0
LINE
8
BLACK
6
CONTINUOUS
10
108.6
20
-89.4349
11
108.692
21
-89.4063
0
LINE
8
BLACK
6
CONTINUOUS
10
108.692
20
-89.4063
11
108.777
21
-89.3604
0
LINE
8
BLACK
6
CONTINUOUS
10
108.777
20
-89.3604
11
108.851
21
-89.2988
0
LINE
8
BLACK
6
CONTINUOUS
10
108.851
20
-89.2988
11
108.912
21
-89.2239
0
LINE
8
BLACK
6
CONTINUOUS
10
108.912
20
-89.2239
11
108.958
21
-89.1386
0
LINE
8
BLACK
6
CONTINUOUS
10
108.958
20
-89.1386
11
108.986
21
-89.0461
0
LINE
8
BLACK
6
CONTINUOUS
10
108.986
20
-89.0461
11
108.995
21
-88.9497
0
LINE
8
BLACK
6
CONTINUOUS
10
108.995
20
-88.9497
11
108.995
21
-75.95
0
LINE
8
BLACK
6
CONTINUOUS
10
108.995
20
-75.95
11
108.995
21
-75.9468
0
LINE
8
BLACK
6
CONTINUOUS
10
108.995
20
-75.9468
11
108.985
21
-75.8505
0
LINE
8
BLACK
6
CONTINUOUS
10
108.985
20
-75.8505
11
108.956
21
-75.7582
0
LINE
8
BLACK
6
CONTINUOUS
10
108.956
20
-75.7582
11
108.91
21
-75.6732
0
LINE
8
BLACK
6
CONTINUOUS
10
108.91
20
-75.6732
11
108.849
21
-75.5988
0
LINE
8
BLACK
6
CONTINUOUS
10
108.849
20
-75.5988
11
108.774
21
-75.5377
0
LINE
8
BLACK
6
CONTINUOUS
10
108.774
20
-75.5377
11
108.689
21
-75.4924
0
LINE
8
BLACK
6
CONTINUOUS
10
108.689
20
-75.4924
11
108.596
21
-75.4645
0
LINE
8
BLACK
6
CONTINUOUS
10
108.596
20
-75.4645
11
108.5
21
-75.455
0
LINE
8
BLACK
6
CONTINUOUS
10
108.5
20
-75.455
11
95.5
21
-75.455
0
LINE
8
BLACK
6
CONTINUOUS
10
89.602
20
-84.8726
11
89.6015
21
-84.8727
0
LINE
8
BLACK
6
CONTINUOUS
10
89.6015
20
-84.8727
11
89.6011
21
-84.8728
0
LINE
8
BLACK
6
CONTINUOUS
10
89.6011
20
-84.8728
11
89.504
21
-84.883
0
LINE
8
BLACK
6
CONTINUOUS
10
89.504
20
-84.883
11
89.5039
21
-84.883
0
LINE
8
BLACK
6
CONTINUOUS
10
89.5039
20
-84.883
11
89.5037
21
-84.883
0
LINE
8
BLACK
6
CONTINUOUS
10
89.5037
20
-84.883
11
89.5035
21
-84.883
0
LINE
8
BLACK
6
CONTINUOUS
10
89.5035
20
-84.883
11
89.5002
21
-84.883
0
LINE
8
BLACK
6
CONTINUOUS
10
89.5002
20
-84.883
11
89.5002
21
-84.883
0
LINE
8
BLACK
6
CONTINUOUS
10
89.5002
20
-84.883
11
89.4999
21
-84.883
0
LINE
8
BLACK
6
CONTINUOUS
10
89.4999
20
-84.883
11
76.4998
21
-84.8739
0
LINE
8
BLACK
6
CONTINUOUS
10
76.4998
20
-84.8739
11
76.4995
21
-84.8739
0
LINE
8
BLACK
6
CONTINUOUS
10
76.4995
20
-84.8739
11
76.4995
21
-84.8739
0
LINE
8
BLACK
6
CONTINUOUS
10
76.4995
20
-84.8739
11
76.4024
21
-84.8644
0
LINE
8
BLACK
6
CONTINUOUS
10
76.4024
20
-84.8644
11
76.4023
21
-84.8644
0
LINE
8
BLACK
6
CONTINUOUS
10
76.4023
20
-84.8644
11
76.4018
21
-84.8643
0
LINE
8
BLACK
6
CONTINUOUS
10
76.4018
20
-84.8643
11
76.4014
21
-84.8642
0
LINE
8
BLACK
6
CONTINUOUS
10
76.4014
20
-84.8642
11
76.4014
21
-84.8642
0
LINE
8
BLACK
6
CONTINUOUS
10
76.4014
20
-84.8642
11
76.4014
21
-84.8642
0
LINE
8
BLACK
6
CONTINUOUS
10
76.4014
20
-84.8642
11
76.4014
21
-84.8642
0
LINE
8
BLACK
6
CONTINUOUS
10
76.4014
20
-84.8642
11
76.308
21
-84.836
0
LINE
8
BLACK
6
CONTINUOUS
10
76.308
20
-84.836
11
76.308
21
-84.836
0
LINE
8
BLACK
6
CONTINUOUS
10
76.308
20
-84.836
11
76.308
21
-84.836
0
LINE
8
BLACK
6
CONTINUOUS
10
76.308
20
-84.836
11
76.308
21
-84.836
0
LINE
8
BLACK
6
CONTINUOUS
10
76.308
20
-84.836
11
76.3075
21
-84.8358
0
LINE
8
BLACK
6
CONTINUOUS
10
76.3075
20
-84.8358
11
76.3071
21
-84.8356
0
LINE
8
BLACK
6
CONTINUOUS
10
76.3071
20
-84.8356
11
76.3071
21
-84.8356
0
LINE
8
BLACK
6
CONTINUOUS
10
76.3071
20
-84.8356
11
76.3071
21
-84.8356
0
LINE
8
BLACK
6
CONTINUOUS
10
76.3071
20
-84.8356
11
76.3071
21
-84.8356
0
LINE
8
BLACK
6
CONTINUOUS
10
76.3071
20
-84.8356
11
76.221
21
-84.7898
0
LINE
8
BLACK
6
CONTINUOUS
10
76.221
20
-84.7898
11
76.221
21
-84.7898
0
LINE
8
BLACK
6
CONTINUOUS
10
76.221
20
-84.7898
11
76.2209
21
-84.7898
0
LINE
8
BLACK
6
CONTINUOUS
10
76.2209
20
-84.7898
11
76.2209
21
-84.7898
0
LINE
8
BLACK
6
CONTINUOUS
10
76.2209
20
-84.7898
11
76.2205
21
-84.7895
0
LINE
8
BLACK
6
CONTINUOUS
10
76.2205
20
-84.7895
11
76.2201
21
-84.7893
0
LINE
8
BLACK
6
CONTINUOUS
10
76.2201
20
-84.7893
11
76.1445
21
-84.7276
0
LINE
8
BLACK
6
CONTINUOUS
10
76.1445
20
-84.7276
11
76.1445
21
-84.7275
0
LINE
8
BLACK
6
CONTINUOUS
10
76.1445
20
-84.7275
11
76.1441
21
-84.7272
0
LINE
8
BLACK
6
CONTINUOUS
10
76.1441
20
-84.7272
11
76.1438
21
-84.7269
0
LINE
8
BLACK
6
CONTINUOUS
10
76.1438
20
-84.7269
11
76.0816
21
-84.6517
0
LINE
8
BLACK
6
CONTINUOUS
10
76.0816
20
-84.6517
11
76.0816
21
-84.6517
0
LINE
8
BLACK
6
CONTINUOUS
10
76.0816
20
-84.6517
11
76.0813
21
-84.6513
0
LINE
8
BLACK
6
CONTINUOUS
10
76.0813
20
-84.6513
11
76.0811
21
-84.6509
0
LINE
8
BLACK
6
CONTINUOUS
10
76.0811
20
-84.6509
11
76.0347
21
-84.5651
0
LINE
8
BLACK
6
CONTINUOUS
10
76.0347
20
-84.5651
11
76.0346
21
-84.565
0
LINE
8
BLACK
6
CONTINUOUS
10
76.0346
20
-84.565
11
76.0344
21
-84.5645
0
LINE
8
BLACK
6
CONTINUOUS
10
76.0344
20
-84.5645
11
76.0343
21
-84.5642
0
LINE
8
BLACK
6
CONTINUOUS
10
76.0343
20
-84.5642
11
76.0343
21
-84.5641
0
LINE
8
BLACK
6
CONTINUOUS
10
76.0343
20
-84.5641
11
76.0343
21
-84.5641
0
LINE
8
BLACK
6
CONTINUOUS
10
76.0343
20
-84.5641
11
76.0343
21
-84.5641
0
LINE
8
BLACK
6
CONTINUOUS
10
76.0343
20
-84.5641
11
76.0054
21
-84.4709
0
LINE
8
BLACK
6
CONTINUOUS
10
76.0054
20
-84.4709
11
76.0054
21
-84.4709
0
LINE
8
BLACK
6
CONTINUOUS
10
76.0054
20
-84.4709
11
76.0053
21
-84.4704
0
LINE
8
BLACK
6
CONTINUOUS
10
76.0053
20
-84.4704
11
76.0052
21
-84.47
0
LINE
8
BLACK
6
CONTINUOUS
10
76.0052
20
-84.47
11
75.995
21
-84.3729
0
LINE
8
BLACK
6
CONTINUOUS
10
75.995
20
-84.3729
11
75.995
21
-84.3729
0
LINE
8
BLACK
6
CONTINUOUS
10
75.995
20
-84.3729
11
75.995
21
-84.3726
0
LINE
8
BLACK
6
CONTINUOUS
10
75.995
20
-84.3726
11
75.995
21
-84.3724
0
LINE
8
BLACK
6
CONTINUOUS
10
75.995
20
-84.3724
11
75.995
21
-84.3689
0
LINE
8
BLACK
6
CONTINUOUS
10
75.995
20
-84.3689
11
75.995
21
-84.3689
0
LINE
8
BLACK
6
CONTINUOUS
10
75.995
20
-84.3689
11
75.995
21
-84.3689
0
LINE
8
BLACK
6
CONTINUOUS
10
75.995
20
-84.3689
11
75.995
21
-71.3778
0
LINE
8
BLACK
6
CONTINUOUS
10
75.995
20
-71.3778
11
75.995
21
-71.3775
0
LINE
8
BLACK
6
CONTINUOUS
10
75.995
20
-71.3775
11
76.0045
21
-71.2804
0
LINE
8
BLACK
6
CONTINUOUS
10
76.0045
20
-71.2804
11
76.0045
21
-71.2803
0
LINE
8
BLACK
6
CONTINUOUS
10
76.0045
20
-71.2803
11
76.0047
21
-71.2798
0
LINE
8
BLACK
6
CONTINUOUS
10
76.0047
20
-71.2798
11
76.0047
21
-71.2794
0
LINE
8
BLACK
6
CONTINUOUS
10
76.0047
20
-71.2794
11
76.0329
21
-71.186
0
LINE
8
BLACK
6
CONTINUOUS
10
76.0329
20
-71.186
11
76.0329
21
-71.186
0
LINE
8
BLACK
6
CONTINUOUS
10
76.0329
20
-71.186
11
76.0329
21
-71.186
0
LINE
8
BLACK
6
CONTINUOUS
10
76.0329
20
-71.186
11
76.033
21
-71.186
0
LINE
8
BLACK
6
CONTINUOUS
10
76.033
20
-71.186
11
76.0331
21
-71.1855
0
LINE
8
BLACK
6
CONTINUOUS
10
76.0331
20
-71.1855
11
76.0333
21
-71.1851
0
LINE
8
BLACK
6
CONTINUOUS
10
76.0333
20
-71.1851
11
76.0791
21
-71.099
0
LINE
8
BLACK
6
CONTINUOUS
10
76.0791
20
-71.099
11
76.0791
21
-71.099
0
LINE
8
BLACK
6
CONTINUOUS
10
76.0791
20
-71.099
11
76.0791
21
-71.0989
0
LINE
8
BLACK
6
CONTINUOUS
10
76.0791
20
-71.0989
11
76.0792
21
-71.0989
0
LINE
8
BLACK
6
CONTINUOUS
10
76.0792
20
-71.0989
11
76.0794
21
-71.0985
0
LINE
8
BLACK
6
CONTINUOUS
10
76.0794
20
-71.0985
11
76.0797
21
-71.0981
0
LINE
8
BLACK
6
CONTINUOUS
10
76.0797
20
-71.0981
11
76.1413
21
-71.0225
0
LINE
8
BLACK
6
CONTINUOUS
10
76.1413
20
-71.0225
11
76.1414
21
-71.0225
0
LINE
8
BLACK
6
CONTINUOUS
10
76.1414
20
-71.0225
11
76.1417
21
-71.0221
0
LINE
8
BLACK
6
CONTINUOUS
10
76.1417
20
-71.0221
11
76.142
21
-71.0218
0
LINE
8
BLACK
6
CONTINUOUS
10
76.142
20
-71.0218
11
76.2172
21
-70.9596
0
LINE
8
BLACK
6
CONTINUOUS
10
76.2172
20
-70.9596
11
76.2173
21
-70.9596
0
LINE
8
BLACK
6
CONTINUOUS
10
76.2173
20
-70.9596
11
76.2176
21
-70.9593
0
LINE
8
BLACK
6
CONTINUOUS
10
76.2176
20
-70.9593
11
76.218
21
-70.9591
0
LINE
8
BLACK
6
CONTINUOUS
10
76.218
20
-70.9591
11
76.3039
21
-70.9127
0
LINE
8
BLACK
6
CONTINUOUS
10
76.3039
20
-70.9127
11
76.3039
21
-70.9126
0
LINE
8
BLACK
6
CONTINUOUS
10
76.3039
20
-70.9126
11
76.3044
21
-70.9125
0
LINE
8
BLACK
6
CONTINUOUS
10
76.3044
20
-70.9125
11
76.3048
21
-70.9123
0
LINE
8
BLACK
6
CONTINUOUS
10
76.3048
20
-70.9123
11
76.398
21
-70.8834
0
LINE
8
BLACK
6
CONTINUOUS
10
76.398
20
-70.8834
11
76.398
21
-70.8834
0
LINE
8
BLACK
6
CONTINUOUS
10
76.398
20
-70.8834
11
76.398
21
-70.8834
0
LINE
8
BLACK
6
CONTINUOUS
10
76.398
20
-70.8834
11
76.398
21
-70.8834
0
LINE
8
BLACK
6
CONTINUOUS
10
76.398
20
-70.8834
11
76.3985
21
-70.8833
0
LINE
8
BLACK
6
CONTINUOUS
10
76.3985
20
-70.8833
11
76.3989
21
-70.8832
0
LINE
8
BLACK
6
CONTINUOUS
10
76.3989
20
-70.8832
11
76.496
21
-70.873
0
LINE
8
BLACK
6
CONTINUOUS
10
76.496
20
-70.873
11
76.4961
21
-70.873
0
LINE
8
BLACK
6
CONTINUOUS
10
76.4961
20
-70.873
11
76.4963
21
-70.873
0
LINE
8
BLACK
6
CONTINUOUS
10
76.4963
20
-70.873
11
76.4965
21
-70.873
0
LINE
8
BLACK
6
CONTINUOUS
10
76.4965
20
-70.873
11
76.4997
21
-70.873
0
LINE
8
BLACK
6
CONTINUOUS
10
76.4997
20
-70.873
11
76.4998
21
-70.873
0
LINE
8
BLACK
6
CONTINUOUS
10
76.4998
20
-70.873
11
89.5002
21
-70.873
0
LINE
8
BLACK
6
CONTINUOUS
10
89.5002
20
-70.873
11
89.5005
21
-70.873
0
LINE
8
BLACK
6
CONTINUOUS
10
89.5005
20
-70.873
11
89.5005
21
-70.873
0
LINE
8
BLACK
6
CONTINUOUS
10
89.5005
20
-70.873
11
89.5976
21
-70.8825
0
LINE
8
BLACK
6
CONTINUOUS
10
89.5976
20
-70.8825
11
89.5977
21
-70.8825
0
LINE
8
BLACK
6
CONTINUOUS
10
89.5977
20
-70.8825
11
89.5982
21
-70.8827
0
LINE
8
BLACK
6
CONTINUOUS
10
89.5982
20
-70.8827
11
89.5986
21
-70.8827
0
LINE
8
BLACK
6
CONTINUOUS
10
89.5986
20
-70.8827
11
89.5986
21
-70.8828
0
LINE
8
BLACK
6
CONTINUOUS
10
89.5986
20
-70.8828
11
89.5986
21
-70.8828
0
LINE
8
BLACK
6
CONTINUOUS
10
89.5986
20
-70.8828
11
89.5986
21
-70.8828
0
LINE
8
BLACK
6
CONTINUOUS
10
89.5986
20
-70.8828
11
89.692
21
-70.9109
0
LINE
8
BLACK
6
CONTINUOUS
10
89.692
20
-70.9109
11
89.692
21
-70.9109
0
LINE
8
BLACK
6
CONTINUOUS
10
89.692
20
-70.9109
11
89.692
21
-70.9109
0
LINE
8
BLACK
6
CONTINUOUS
10
89.692
20
-70.9109
11
89.692
21
-70.911
0
LINE
8
BLACK
6
CONTINUOUS
10
89.692
20
-70.911
11
89.6925
21
-70.9111
0
LINE
8
BLACK
6
CONTINUOUS
10
89.6925
20
-70.9111
11
89.6929
21
-70.9113
0
LINE
8
BLACK
6
CONTINUOUS
10
89.6929
20
-70.9113
11
89.6929
21
-70.9113
0
LINE
8
BLACK
6
CONTINUOUS
10
89.6929
20
-70.9113
11
89.6929
21
-70.9113
0
LINE
8
BLACK
6
CONTINUOUS
10
89.6929
20
-70.9113
11
89.6929
21
-70.9113
0
LINE
8
BLACK
6
CONTINUOUS
10
89.6929
20
-70.9113
11
89.779
21
-70.9571
0
LINE
8
BLACK
6
CONTINUOUS
10
89.779
20
-70.9571
11
89.779
21
-70.9571
0
LINE
8
BLACK
6
CONTINUOUS
10
89.779
20
-70.9571
11
89.7791
21
-70.9571
0
LINE
8
BLACK
6
CONTINUOUS
10
89.7791
20
-70.9571
11
89.7791
21
-70.9572
0
LINE
8
BLACK
6
CONTINUOUS
10
89.7791
20
-70.9572
11
89.7795
21
-70.9574
0
LINE
8
BLACK
6
CONTINUOUS
10
89.7795
20
-70.9574
11
89.7799
21
-70.9577
0
LINE
8
BLACK
6
CONTINUOUS
10
89.7799
20
-70.9577
11
89.8555
21
-71.0193
0
LINE
8
BLACK
6
CONTINUOUS
10
89.8555
20
-71.0193
11
89.8555
21
-71.0194
0
LINE
8
BLACK
6
CONTINUOUS
10
89.8555
20
-71.0194
11
89.8559
21
-71.0197
0
LINE
8
BLACK
6
CONTINUOUS
10
89.8559
20
-71.0197
11
89.8562
21
-71.02
0
LINE
8
BLACK
6
CONTINUOUS
10
89.8562
20
-71.02
11
89.9184
21
-71.0952
0
LINE
8
BLACK
6
CONTINUOUS
10
89.9184
20
-71.0952
11
89.9184
21
-71.0953
0
LINE
8
BLACK
6
CONTINUOUS
10
89.9184
20
-71.0953
11
89.9187
21
-71.0956
0
LINE
8
BLACK
6
CONTINUOUS
10
89.9187
20
-71.0956
11
89.9189
21
-71.096
0
LINE
8
BLACK
6
CONTINUOUS
10
89.9189
20
-71.096
11
89.9653
21
-71.1819
0
LINE
8
BLACK
6
CONTINUOUS
10
89.9653
20
-71.1819
11
89.9654
21
-71.1819
0
LINE
8
BLACK
6
CONTINUOUS
10
89.9654
20
-71.1819
11
89.9655
21
-71.1824
0
LINE
8
BLACK
6
CONTINUOUS
10
89.9655
20
-71.1824
11
89.9657
21
-71.1828
0
LINE
8
BLACK
6
CONTINUOUS
10
89.9657
20
-71.1828
11
89.9946
21
-71.276
0
LINE
8
BLACK
6
CONTINUOUS
10
89.9946
20
-71.276
11
89.9946
21
-71.276
0
LINE
8
BLACK
6
CONTINUOUS
10
89.9946
20
-71.276
11
89.9946
21
-71.276
0
LINE
8
BLACK
6
CONTINUOUS
10
89.9946
20
-71.276
11
89.9946
21
-71.276
0
LINE
8
BLACK
6
CONTINUOUS
10
89.9946
20
-71.276
11
89.9947
21
-71.2765
0
LINE
8
BLACK
6
CONTINUOUS
10
89.9947
20
-71.2765
11
89.9948
21
-71.2769
0
LINE
8
BLACK
6
CONTINUOUS
10
89.9948
20
-71.2769
11
90.005
21
-71.374
0
LINE
8
BLACK
6
CONTINUOUS
10
90.005
20
-71.374
11
90.005
21
-71.3741
0
LINE
8
BLACK
6
CONTINUOUS
10
90.005
20
-71.3741
11
90.005
21
-71.3743
0
LINE
8
BLACK
6
CONTINUOUS
10
90.005
20
-71.3743
11
90.005
21
-71.3745
0
LINE
8
BLACK
6
CONTINUOUS
10
90.005
20
-71.3745
11
90.005
21
-71.3777
0
LINE
8
BLACK
6
CONTINUOUS
10
90.005
20
-71.3777
11
90.005
21
-71.3778
0
LINE
8
BLACK
6
CONTINUOUS
10
90.005
20
-71.3778
11
90.005
21
-84.3782
0
LINE
8
BLACK
6
CONTINUOUS
10
90.005
20
-84.3782
11
90.005
21
-84.3785
0
LINE
8
BLACK
6
CONTINUOUS
10
90.005
20
-84.3785
11
90.005
21
-84.3785
0
LINE
8
BLACK
6
CONTINUOUS
10
90.005
20
-84.3785
11
89.9955
21
-84.4756
0
LINE
8
BLACK
6
CONTINUOUS
10
89.9955
20
-84.4756
11
89.9954
21
-84.4757
0
LINE
8
BLACK
6
CONTINUOUS
10
89.9954
20
-84.4757
11
89.9953
21
-84.4762
0
LINE
8
BLACK
6
CONTINUOUS
10
89.9953
20
-84.4762
11
89.9953
21
-84.4766
0
LINE
8
BLACK
6
CONTINUOUS
10
89.9953
20
-84.4766
11
89.9671
21
-84.57
0
LINE
8
BLACK
6
CONTINUOUS
10
89.9671
20
-84.57
11
89.9671
21
-84.57
0
LINE
8
BLACK
6
CONTINUOUS
10
89.9671
20
-84.57
11
89.9671
21
-84.57
0
LINE
8
BLACK
6
CONTINUOUS
10
89.9671
20
-84.57
11
89.967
21
-84.57
0
LINE
8
BLACK
6
CONTINUOUS
10
89.967
20
-84.57
11
89.9669
21
-84.5705
0
LINE
8
BLACK
6
CONTINUOUS
10
89.9669
20
-84.5705
11
89.9667
21
-84.5709
0
LINE
8
BLACK
6
CONTINUOUS
10
89.9667
20
-84.5709
11
89.9209
21
-84.657
0
LINE
8
BLACK
6
CONTINUOUS
10
89.9209
20
-84.657
11
89.9209
21
-84.657
0
LINE
8
BLACK
6
CONTINUOUS
10
89.9209
20
-84.657
11
89.9209
21
-84.6571
0
LINE
8
BLACK
6
CONTINUOUS
10
89.9209
20
-84.6571
11
89.9208
21
-84.6571
0
LINE
8
BLACK
6
CONTINUOUS
10
89.9208
20
-84.6571
11
89.9206
21
-84.6575
0
LINE
8
BLACK
6
CONTINUOUS
10
89.9206
20
-84.6575
11
89.9203
21
-84.6579
0
LINE
8
BLACK
6
CONTINUOUS
10
89.9203
20
-84.6579
11
89.8587
21
-84.7335
0
LINE
8
BLACK
6
CONTINUOUS
10
89.8587
20
-84.7335
11
89.8586
21
-84.7335
0
LINE
8
BLACK
6
CONTINUOUS
10
89.8586
20
-84.7335
11
89.8583
21
-84.7339
0
LINE
8
BLACK
6
CONTINUOUS
10
89.8583
20
-84.7339
11
89.858
21
-84.7342
0
LINE
8
BLACK
6
CONTINUOUS
10
89.858
20
-84.7342
11
89.7828
21
-84.7964
0
LINE
8
BLACK
6
CONTINUOUS
10
89.7828
20
-84.7964
11
89.7827
21
-84.7964
0
LINE
8
BLACK
6
CONTINUOUS
10
89.7827
20
-84.7964
11
89.7823
21
-84.7967
0
LINE
8
BLACK
6
CONTINUOUS
10
89.7823
20
-84.7967
11
89.782
21
-84.7969
0
LINE
8
BLACK
6
CONTINUOUS
10
89.782
20
-84.7969
11
89.6961
21
-84.8433
0
LINE
8
BLACK
6
CONTINUOUS
10
89.6961
20
-84.8433
11
89.6961
21
-84.8434
0
LINE
8
BLACK
6
CONTINUOUS
10
89.6961
20
-84.8434
11
89.6956
21
-84.8436
0
LINE
8
BLACK
6
CONTINUOUS
10
89.6956
20
-84.8436
11
89.6952
21
-84.8437
0
LINE
8
BLACK
6
CONTINUOUS
10
89.6952
20
-84.8437
11
89.6952
21
-84.8437
0
LINE
8
BLACK
6
CONTINUOUS
10
89.6952
20
-84.8437
11
89.6952
21
-84.8437
0
LINE
8
BLACK
6
CONTINUOUS
10
89.6952
20
-84.8437
11
89.6952
21
-84.8437
0
LINE
8
BLACK
6
CONTINUOUS
10
89.6952
20
-84.8437
11
89.602
21
-84.8726
0
LINE
8
BLACK
6
CONTINUOUS
10
89.602
20
-84.8726
11
89.602
21
-84.8726
0
LINE
8
BLACK
6
CONTINUOUS
10
89.602
20
-84.8726
11
89.602
21
-84.8726
0
LINE
8
BLACK
6
CONTINUOUS
10
76.5
20
-70.883
11
76.4968
21
-70.883
0
LINE
8
BLACK
6
CONTINUOUS
10
76.4968
20
-70.883
11
76.4005
21
-70.8931
0
LINE
8
BLACK
6
CONTINUOUS
10
76.4005
20
-70.8931
11
76.3082
21
-70.9217
0
LINE
8
BLACK
6
CONTINUOUS
10
76.3082
20
-70.9217
11
76.2232
21
-70.9676
0
LINE
8
BLACK
6
CONTINUOUS
10
76.2232
20
-70.9676
11
76.1488
21
-71.0292
0
LINE
8
BLACK
6
CONTINUOUS
10
76.1488
20
-71.0292
11
76.0877
21
-71.1041
0
LINE
8
BLACK
6
CONTINUOUS
10
76.0877
20
-71.1041
11
76.0424
21
-71.1894
0
LINE
8
BLACK
6
CONTINUOUS
10
76.0424
20
-71.1894
11
76.0145
21
-71.2819
0
LINE
8
BLACK
6
CONTINUOUS
10
76.0145
20
-71.2819
11
76.005
21
-71.3782
0
LINE
8
BLACK
6
CONTINUOUS
10
76.005
20
-71.3782
11
76.005
21
-84.3689
0
LINE
8
BLACK
6
CONTINUOUS
10
76.005
20
-84.3689
11
76.005
21
-84.3721
0
LINE
8
BLACK
6
CONTINUOUS
10
76.005
20
-84.3721
11
76.0151
21
-84.4685
0
LINE
8
BLACK
6
CONTINUOUS
10
76.0151
20
-84.4685
11
76.0437
21
-84.5607
0
LINE
8
BLACK
6
CONTINUOUS
10
76.0437
20
-84.5607
11
76.0896
21
-84.6457
0
LINE
8
BLACK
6
CONTINUOUS
10
76.0896
20
-84.6457
11
76.1512
21
-84.7201
0
LINE
8
BLACK
6
CONTINUOUS
10
76.1512
20
-84.7201
11
76.2261
21
-84.7812
0
LINE
8
BLACK
6
CONTINUOUS
10
76.2261
20
-84.7812
11
76.3114
21
-84.8265
0
LINE
8
BLACK
6
CONTINUOUS
10
76.3114
20
-84.8265
11
76.4039
21
-84.8545
0
LINE
8
BLACK
6
CONTINUOUS
10
76.4039
20
-84.8545
11
76.5002
21
-84.8639
0
LINE
8
BLACK
6
CONTINUOUS
10
76.5002
20
-84.8639
11
89.5
21
-84.873
0
LINE
8
BLACK
6
CONTINUOUS
10
89.5
20
-84.873
11
89.5032
21
-84.873
0
LINE
8
BLACK
6
CONTINUOUS
10
89.5032
20
-84.873
11
89.5995
21
-84.8629
0
LINE
8
BLACK
6
CONTINUOUS
10
89.5995
20
-84.8629
11
89.6918
21
-84.8343
0
LINE
8
BLACK
6
CONTINUOUS
10
89.6918
20
-84.8343
11
89.7768
21
-84.7884
0
LINE
8
BLACK
6
CONTINUOUS
10
89.7768
20
-84.7884
11
89.8512
21
-84.7268
0
LINE
8
BLACK
6
CONTINUOUS
10
89.8512
20
-84.7268
11
89.9123
21
-84.6519
0
LINE
8
BLACK
6
CONTINUOUS
10
89.9123
20
-84.6519
11
89.9576
21
-84.5666
0
LINE
8
BLACK
6
CONTINUOUS
10
89.9576
20
-84.5666
11
89.9855
21
-84.4741
0
LINE
8
BLACK
6
CONTINUOUS
10
89.9855
20
-84.4741
11
89.995
21
-84.3777
0
LINE
8
BLACK
6
CONTINUOUS
10
89.995
20
-84.3777
11
89.995
21
-71.378
0
LINE
8
BLACK
6
CONTINUOUS
10
89.995
20
-71.378
11
89.995
21
-71.3748
0
LINE
8
BLACK
6
CONTINUOUS
10
89.995
20
-71.3748
11
89.9849
21
-71.2785
0
LINE
8
BLACK
6
CONTINUOUS
10
89.9849
20
-71.2785
11
89.9563
21
-71.1862
0
LINE
8
BLACK
6
CONTINUOUS
10
89.9563
20
-71.1862
11
89.9104
21
-71.1012
0
LINE
8
BLACK
6
CONTINUOUS
10
89.9104
20
-71.1012
11
89.8488
21
-71.0268
0
LINE
8
BLACK
6
CONTINUOUS
10
89.8488
20
-71.0268
11
89.7739
21
-70.9657
0
LINE
8
BLACK
6
CONTINUOUS
10
89.7739
20
-70.9657
11
89.6886
21
-70.9204
0
LINE
8
BLACK
6
CONTINUOUS
10
89.6886
20
-70.9204
11
89.5961
21
-70.8925
0
LINE
8
BLACK
6
CONTINUOUS
10
89.5961
20
-70.8925
11
89.4998
21
-70.883
0
LINE
8
BLACK
6
CONTINUOUS
10
89.4998
20
-70.883
11
76.5
21
-70.883
0
LINE
8
BLACK
6
CONTINUOUS
10
51.602
20
-83.9946
11
51.6015
21
-83.9947
0
LINE
8
BLACK
6
CONTINUOUS
10
51.6015
20
-83.9947
11
51.6011
21
-83.9948
0
LINE
8
BLACK
6
CONTINUOUS
10
51.6011
20
-83.9948
11
51.504
21
-84.005
0
LINE
8
BLACK
6
CONTINUOUS
10
51.504
20
-84.005
11
51.5039
21
-84.005
0
LINE
8
BLACK
6
CONTINUOUS
10
51.5039
20
-84.005
11
51.5037
21
-84.005
0
LINE
8
BLACK
6
CONTINUOUS
10
51.5037
20
-84.005
11
51.5035
21
-84.005
0
LINE
8
BLACK
6
CONTINUOUS
10
51.5035
20
-84.005
11
51.5002
21
-84.005
0
LINE
8
BLACK
6
CONTINUOUS
10
51.5002
20
-84.005
11
51.5002
21
-84.005
0
LINE
8
BLACK
6
CONTINUOUS
10
51.5002
20
-84.005
11
51.4999
21
-84.005
0
LINE
8
BLACK
6
CONTINUOUS
10
51.4999
20
-84.005
11
38.4998
21
-83.9959
0
LINE
8
BLACK
6
CONTINUOUS
10
38.4998
20
-83.9959
11
38.4995
21
-83.9959
0
LINE
8
BLACK
6
CONTINUOUS
10
38.4995
20
-83.9959
11
38.4995
21
-83.9959
0
LINE
8
BLACK
6
CONTINUOUS
10
38.4995
20
-83.9959
11
38.4024
21
-83.9864
0
LINE
8
BLACK
6
CONTINUOUS
10
38.4024
20
-83.9864
11
38.4023
21
-83.9864
0
LINE
8
BLACK
6
CONTINUOUS
10
38.4023
20
-83.9864
11
38.4018
21
-83.9863
0
LINE
8
BLACK
6
CONTINUOUS
10
38.4018
20
-83.9863
11
38.4014
21
-83.9862
0
LINE
8
BLACK
6
CONTINUOUS
10
38.4014
20
-83.9862
11
38.4014
21
-83.9862
0
LINE
8
BLACK
6
CONTINUOUS
10
38.4014
20
-83.9862
11
38.4014
21
-83.9862
0
LINE
8
BLACK
6
CONTINUOUS
10
38.4014
20
-83.9862
11
38.4014
21
-83.9862
0
LINE
8
BLACK
6
CONTINUOUS
10
38.4014
20
-83.9862
11
38.308
21
-83.958
0
LINE
8
BLACK
6
CONTINUOUS
10
38.308
20
-83.958
11
38.308
21
-83.958
0
LINE
8
BLACK
6
CONTINUOUS
10
38.308
20
-83.958
11
38.308
21
-83.958
0
LINE
8
BLACK
6
CONTINUOUS
10
38.308
20
-83.958
11
38.308
21
-83.958
0
LINE
8
BLACK
6
CONTINUOUS
10
38.308
20
-83.958
11
38.3075
21
-83.9578
0
LINE
8
BLACK
6
CONTINUOUS
10
38.3075
20
-83.9578
11
38.3071
21
-83.9576
0
LINE
8
BLACK
6
CONTINUOUS
10
38.3071
20
-83.9576
11
38.3071
21
-83.9576
0
LINE
8
BLACK
6
CONTINUOUS
10
38.3071
20
-83.9576
11
38.3071
21
-83.9576
0
LINE
8
BLACK
6
CONTINUOUS
10
38.3071
20
-83.9576
11
38.3071
21
-83.9576
0
LINE
8
BLACK
6
CONTINUOUS
10
38.3071
20
-83.9576
11
38.221
21
-83.9118
0
LINE
8
BLACK
6
CONTINUOUS
10
38.221
20
-83.9118
11
38.221
21
-83.9118
0
LINE
8
BLACK
6
CONTINUOUS
10
38.221
20
-83.9118
11
38.2209
21
-83.9118
0
LINE
8
BLACK
6
CONTINUOUS
10
38.2209
20
-83.9118
11
38.2209
21
-83.9118
0
LINE
8
BLACK
6
CONTINUOUS
10
38.2209
20
-83.9118
11
38.2205
21
-83.9115
0
LINE
8
BLACK
6
CONTINUOUS
10
38.2205
20
-83.9115
11
38.2201
21
-83.9113
0
LINE
8
BLACK
6
CONTINUOUS
10
38.2201
20
-83.9113
11
38.1445
21
-83.8496
0
LINE
8
BLACK
6
CONTINUOUS
10
38.1445
20
-83.8496
11
38.1445
21
-83.8495
0
LINE
8
BLACK
6
CONTINUOUS
10
38.1445
20
-83.8495
11
38.1441
21
-83.8492
0
LINE
8
BLACK
6
CONTINUOUS
10
38.1441
20
-83.8492
11
38.1438
21
-83.8489
0
LINE
8
BLACK
6
CONTINUOUS
10
38.1438
20
-83.8489
11
38.0816
21
-83.7737
0
LINE
8
BLACK
6
CONTINUOUS
10
38.0816
20
-83.7737
11
38.0816
21
-83.7737
0
LINE
8
BLACK
6
CONTINUOUS
10
38.0816
20
-83.7737
11
38.0813
21
-83.7733
0
LINE
8
BLACK
6
CONTINUOUS
10
38.0813
20
-83.7733
11
38.0811
21
-83.7729
0
LINE
8
BLACK
6
CONTINUOUS
10
38.0811
20
-83.7729
11
38.0347
21
-83.6871
0
LINE
8
BLACK
6
CONTINUOUS
10
38.0347
20
-83.6871
11
38.0346
21
-83.687
0
LINE
8
BLACK
6
CONTINUOUS
10
38.0346
20
-83.687
11
38.0344
21
-83.6865
0
LINE
8
BLACK
6
CONTINUOUS
10
38.0344
20
-83.6865
11
38.0343
21
-83.6862
0
LINE
8
BLACK
6
CONTINUOUS
10
38.0343
20
-83.6862
11
38.0343
21
-83.6861
0
LINE
8
BLACK
6
CONTINUOUS
10
38.0343
20
-83.6861
11
38.0343
21
-83.6861
0
LINE
8
BLACK
6
CONTINUOUS
10
38.0343
20
-83.6861
11
38.0343
21
-83.6861
0
LINE
8
BLACK
6
CONTINUOUS
10
38.0343
20
-83.6861
11
38.0054
21
-83.5929
0
LINE
8
BLACK
6
CONTINUOUS
10
38.0054
20
-83.5929
11
38.0054
21
-83.5929
0
LINE
8
BLACK
6
CONTINUOUS
10
38.0054
20
-83.5929
11
38.0053
21
-83.5924
0
LINE
8
BLACK
6
CONTINUOUS
10
38.0053
20
-83.5924
11
38.0052
21
-83.592
0
LINE
8
BLACK
6
CONTINUOUS
10
38.0052
20
-83.592
11
37.995
21
-83.4949
0
LINE
8
BLACK
6
CONTINUOUS
10
37.995
20
-83.4949
11
37.995
21
-83.4949
0
LINE
8
BLACK
6
CONTINUOUS
10
37.995
20
-83.4949
11
37.995
21
-83.4946
0
LINE
8
BLACK
6
CONTINUOUS
10
37.995
20
-83.4946
11
37.995
21
-83.4944
0
LINE
8
BLACK
6
CONTINUOUS
10
37.995
20
-83.4944
11
37.995
21
-83.4909
0
LINE
8
BLACK
6
CONTINUOUS
10
37.995
20
-83.4909
11
37.995
21
-83.4909
0
LINE
8
BLACK
6
CONTINUOUS
10
37.995
20
-83.4909
11
37.995
21
-83.4909
0
LINE
8
BLACK
6
CONTINUOUS
10
37.995
20
-83.4909
11
37.995
21
-70.4998
0
LINE
8
BLACK
6
CONTINUOUS
10
37.995
20
-70.4998
11
37.995
21
-70.4995
0
LINE
8
BLACK
6
CONTINUOUS
10
37.995
20
-70.4995
11
38.0045
21
-70.4024
0
LINE
8
BLACK
6
CONTINUOUS
10
38.0045
20
-70.4024
11
38.0046
21
-70.4023
0
LINE
8
BLACK
6
CONTINUOUS
10
38.0046
20
-70.4023
11
38.0047
21
-70.4018
0
LINE
8
BLACK
6
CONTINUOUS
10
38.0047
20
-70.4018
11
38.0047
21
-70.4014
0
LINE
8
BLACK
6
CONTINUOUS
10
38.0047
20
-70.4014
11
38.0329
21
-70.308
0
LINE
8
BLACK
6
CONTINUOUS
10
38.0329
20
-70.308
11
38.0329
21
-70.308
0
LINE
8
BLACK
6
CONTINUOUS
10
38.0329
20
-70.308
11
38.0329
21
-70.308
0
LINE
8
BLACK
6
CONTINUOUS
10
38.0329
20
-70.308
11
38.033
21
-70.308
0
LINE
8
BLACK
6
CONTINUOUS
10
38.033
20
-70.308
11
38.0331
21
-70.3075
0
LINE
8
BLACK
6
CONTINUOUS
10
38.0331
20
-70.3075
11
38.0333
21
-70.3071
0
LINE
8
BLACK
6
CONTINUOUS
10
38.0333
20
-70.3071
11
38.0791
21
-70.221
0
LINE
8
BLACK
6
CONTINUOUS
10
38.0791
20
-70.221
11
38.0791
21
-70.221
0
LINE
8
BLACK
6
CONTINUOUS
10
38.0791
20
-70.221
11
38.0791
21
-70.2209
0
LINE
8
BLACK
6
CONTINUOUS
10
38.0791
20
-70.2209
11
38.0792
21
-70.2209
0
LINE
8
BLACK
6
CONTINUOUS
10
38.0792
20
-70.2209
11
38.0794
21
-70.2205
0
LINE
8
BLACK
6
CONTINUOUS
10
38.0794
20
-70.2205
11
38.0797
21
-70.2201
0
LINE
8
BLACK
6
CONTINUOUS
10
38.0797
20
-70.2201
11
38.1413
21
-70.1445
0
LINE
8
BLACK
6
CONTINUOUS
10
38.1413
20
-70.1445
11
38.1414
21
-70.1445
0
LINE
8
BLACK
6
CONTINUOUS
10
38.1414
20
-70.1445
11
38.1417
21
-70.1441
0
LINE
8
BLACK
6
CONTINUOUS
10
38.1417
20
-70.1441
11
38.142
21
-70.1438
0
LINE
8
BLACK
6
CONTINUOUS
10
38.142
20
-70.1438
11
38.2172
21
-70.0816
0
LINE
8
BLACK
6
CONTINUOUS
10
38.2172
20
-70.0816
11
38.2173
21
-70.0816
0
LINE
8
BLACK
6
CONTINUOUS
10
38.2173
20
-70.0816
11
38.2176
21
-70.0813
0
LINE
8
BLACK
6
CONTINUOUS
10
38.2176
20
-70.0813
11
38.218
21
-70.0811
0
LINE
8
BLACK
6
CONTINUOUS
10
38.218
20
-70.0811
11
38.3039
21
-70.0347
0
LINE
8
BLACK
6
CONTINUOUS
10
38.3039
20
-70.0347
11
38.3039
21
-70.0346
0
LINE
8
BLACK
6
CONTINUOUS
10
38.3039
20
-70.0346
11
38.3044
21
-70.0345
0
LINE
8
BLACK
6
CONTINUOUS
10
38.3044
20
-70.0345
11
38.3048
21
-70.0343
0
LINE
8
BLACK
6
CONTINUOUS
10
38.3048
20
-70.0343
11
38.398
21
-70.0054
0
LINE
8
BLACK
6
CONTINUOUS
10
38.398
20
-70.0054
11
38.398
21
-70.0054
0
LINE
8
BLACK
6
CONTINUOUS
10
38.398
20
-70.0054
11
38.398
21
-70.0054
0
LINE
8
BLACK
6
CONTINUOUS
10
38.398
20
-70.0054
11
38.398
21
-70.0054
0
LINE
8
BLACK
6
CONTINUOUS
10
38.398
20
-70.0054
11
38.3985
21
-70.0053
0
LINE
8
BLACK
6
CONTINUOUS
10
38.3985
20
-70.0053
11
38.3989
21
-70.0052
0
LINE
8
BLACK
6
CONTINUOUS
10
38.3989
20
-70.0052
11
38.496
21
-69.995
0
LINE
8
BLACK
6
CONTINUOUS
10
38.496
20
-69.995
11
38.4961
21
-69.995
0
LINE
8
BLACK
6
CONTINUOUS
10
38.4961
20
-69.995
11
38.4963
21
-69.995
0
LINE
8
BLACK
6
CONTINUOUS
10
38.4963
20
-69.995
11
38.4965
21
-69.995
0
LINE
8
BLACK
6
CONTINUOUS
10
38.4965
20
-69.995
11
38.4997
21
-69.995
0
LINE
8
BLACK
6
CONTINUOUS
10
38.4997
20
-69.995
11
38.4998
21
-69.995
0
LINE
8
BLACK
6
CONTINUOUS
10
38.4998
20
-69.995
11
51.5002
21
-69.995
0
LINE
8
BLACK
6
CONTINUOUS
10
51.5002
20
-69.995
11
51.5005
21
-69.995
0
LINE
8
BLACK
6
CONTINUOUS
10
51.5005
20
-69.995
11
51.5005
21
-69.995
0
LINE
8
BLACK
6
CONTINUOUS
10
51.5005
20
-69.995
11
51.5976
21
-70.0045
0
LINE
8
BLACK
6
CONTINUOUS
10
51.5976
20
-70.0045
11
51.5977
21
-70.0045
0
LINE
8
BLACK
6
CONTINUOUS
10
51.5977
20
-70.0045
11
51.5982
21
-70.0047
0
LINE
8
BLACK
6
CONTINUOUS
10
51.5982
20
-70.0047
11
51.5986
21
-70.0047
0
LINE
8
BLACK
6
CONTINUOUS
10
51.5986
20
-70.0047
11
51.5986
21
-70.0048
0
LINE
8
BLACK
6
CONTINUOUS
10
51.5986
20
-70.0048
11
51.5986
21
-70.0048
0
LINE
8
BLACK
6
CONTINUOUS
10
51.5986
20
-70.0048
11
51.5986
21
-70.0048
0
LINE
8
BLACK
6
CONTINUOUS
10
51.5986
20
-70.0048
11
51.692
21
-70.0329
0
LINE
8
BLACK
6
CONTINUOUS
10
51.692
20
-70.0329
11
51.692
21
-70.0329
0
LINE
8
BLACK
6
CONTINUOUS
10
51.692
20
-70.0329
11
51.692
21
-70.0329
0
LINE
8
BLACK
6
CONTINUOUS
10
51.692
20
-70.0329
11
51.692
21
-70.033
0
LINE
8
BLACK
6
CONTINUOUS
10
51.692
20
-70.033
11
51.6925
21
-70.0331
0
LINE
8
BLACK
6
CONTINUOUS
10
51.6925
20
-70.0331
11
51.6929
21
-70.0333
0
LINE
8
BLACK
6
CONTINUOUS
10
51.6929
20
-70.0333
11
51.6929
21
-70.0333
0
LINE
8
BLACK
6
CONTINUOUS
10
51.6929
20
-70.0333
11
51.6929
21
-70.0333
0
LINE
8
BLACK
6
CONTINUOUS
10
51.6929
20
-70.0333
11
51.6929
21
-70.0333
0
LINE
8
BLACK
6
CONTINUOUS
10
51.6929
20
-70.0333
11
51.779
21
-70.0791
0
LINE
8
BLACK
6
CONTINUOUS
10
51.779
20
-70.0791
11
51.779
21
-70.0791
0
LINE
8
BLACK
6
CONTINUOUS
10
51.779
20
-70.0791
11
51.7791
21
-70.0791
0
LINE
8
BLACK
6
CONTINUOUS
10
51.7791
20
-70.0791
11
51.7791
21
-70.0792
0
LINE
8
BLACK
6
CONTINUOUS
10
51.7791
20
-70.0792
11
51.7795
21
-70.0794
0
LINE
8
BLACK
6
CONTINUOUS
10
51.7795
20
-70.0794
11
51.7799
21
-70.0797
0
LINE
8
BLACK
6
CONTINUOUS
10
51.7799
20
-70.0797
11
51.8555
21
-70.1413
0
LINE
8
BLACK
6
CONTINUOUS
10
51.8555
20
-70.1413
11
51.8555
21
-70.1414
0
LINE
8
BLACK
6
CONTINUOUS
10
51.8555
20
-70.1414
11
51.8559
21
-70.1417
0
LINE
8
BLACK
6
CONTINUOUS
10
51.8559
20
-70.1417
11
51.8562
21
-70.142
0
LINE
8
BLACK
6
CONTINUOUS
10
51.8562
20
-70.142
11
51.9184
21
-70.2172
0
LINE
8
BLACK
6
CONTINUOUS
10
51.9184
20
-70.2172
11
51.9184
21
-70.2173
0
LINE
8
BLACK
6
CONTINUOUS
10
51.9184
20
-70.2173
11
51.9187
21
-70.2176
0
LINE
8
BLACK
6
CONTINUOUS
10
51.9187
20
-70.2176
11
51.9189
21
-70.218
0
LINE
8
BLACK
6
CONTINUOUS
10
51.9189
20
-70.218
11
51.9653
21
-70.3039
0
LINE
8
BLACK
6
CONTINUOUS
10
51.9653
20
-70.3039
11
51.9654
21
-70.3039
0
LINE
8
BLACK
6
CONTINUOUS
10
51.9654
20
-70.3039
11
51.9655
21
-70.3044
0
LINE
8
BLACK
6
CONTINUOUS
10
51.9655
20
-70.3044
11
51.9657
21
-70.3048
0
LINE
8
BLACK
6
CONTINUOUS
10
51.9657
20
-70.3048
11
51.9946
21
-70.398
0
LINE
8
BLACK
6
CONTINUOUS
10
51.9946
20
-70.398
11
51.9946
21
-70.398
0
LINE
8
BLACK
6
CONTINUOUS
10
51.9946
20
-70.398
11
51.9946
21
-70.398
0
LINE
8
BLACK
6
CONTINUOUS
10
51.9946
20
-70.398
11
51.9946
21
-70.398
0
LINE
8
BLACK
6
CONTINUOUS
10
51.9946
20
-70.398
11
51.9947
21
-70.3985
0
LINE
8
BLACK
6
CONTINUOUS
10
51.9947
20
-70.3985
11
51.9948
21
-70.3989
0
LINE
8
BLACK
6
CONTINUOUS
10
51.9948
20
-70.3989
11
52.005
21
-70.496
0
LINE
8
BLACK
6
CONTINUOUS
10
52.005
20
-70.496
11
52.005
21
-70.4961
0
LINE
8
BLACK
6
CONTINUOUS
10
52.005
20
-70.4961
11
52.005
21
-70.4963
0
LINE
8
BLACK
6
CONTINUOUS
10
52.005
20
-70.4963
11
52.005
21
-70.4965
0
LINE
8
BLACK
6
CONTINUOUS
10
52.005
20
-70.4965
11
52.005
21
-70.4997
0
LINE
8
BLACK
6
CONTINUOUS
10
52.005
20
-70.4997
11
52.005
21
-70.4998
0
LINE
8
BLACK
6
CONTINUOUS
10
52.005
20
-70.4998
11
52.005
21
-83.5002
0
LINE
8
BLACK
6
CONTINUOUS
10
52.005
20
-83.5002
11
52.005
21
-83.5005
0
LINE
8
BLACK
6
CONTINUOUS
10
52.005
20
-83.5005
11
52.005
21
-83.5005
0
LINE
8
BLACK
6
CONTINUOUS
10
52.005
20
-83.5005
11
51.9955
21
-83.5976
0
LINE
8
BLACK
6
CONTINUOUS
10
51.9955
20
-83.5976
11
51.9954
21
-83.5977
0
LINE
8
BLACK
6
CONTINUOUS
10
51.9954
20
-83.5977
11
51.9953
21
-83.5982
0
LINE
8
BLACK
6
CONTINUOUS
10
51.9953
20
-83.5982
11
51.9953
21
-83.5986
0
LINE
8
BLACK
6
CONTINUOUS
10
51.9953
20
-83.5986
11
51.9671
21
-83.692
0
LINE
8
BLACK
6
CONTINUOUS
10
51.9671
20
-83.692
11
51.9671
21
-83.692
0
LINE
8
BLACK
6
CONTINUOUS
10
51.9671
20
-83.692
11
51.9671
21
-83.692
0
LINE
8
BLACK
6
CONTINUOUS
10
51.9671
20
-83.692
11
51.967
21
-83.692
0
LINE
8
BLACK
6
CONTINUOUS
10
51.967
20
-83.692
11
51.9669
21
-83.6925
0
LINE
8
BLACK
6
CONTINUOUS
10
51.9669
20
-83.6925
11
51.9667
21
-83.6929
0
LINE
8
BLACK
6
CONTINUOUS
10
51.9667
20
-83.6929
11
51.9209
21
-83.779
0
LINE
8
BLACK
6
CONTINUOUS
10
51.9209
20
-83.779
11
51.9209
21
-83.779
0
LINE
8
BLACK
6
CONTINUOUS
10
51.9209
20
-83.779
11
51.9209
21
-83.7791
0
LINE
8
BLACK
6
CONTINUOUS
10
51.9209
20
-83.7791
11
51.9208
21
-83.7791
0
LINE
8
BLACK
6
CONTINUOUS
10
51.9208
20
-83.7791
11
51.9206
21
-83.7795
0
LINE
8
BLACK
6
CONTINUOUS
10
51.9206
20
-83.7795
11
51.9203
21
-83.7799
0
LINE
8
BLACK
6
CONTINUOUS
10
51.9203
20
-83.7799
11
51.8587
21
-83.8555
0
LINE
8
BLACK
6
CONTINUOUS
10
51.8587
20
-83.8555
11
51.8586
21
-83.8555
0
LINE
8
BLACK
6
CONTINUOUS
10
51.8586
20
-83.8555
11
51.8583
21
-83.8559
0
LINE
8
BLACK
6
CONTINUOUS
10
51.8583
20
-83.8559
11
51.858
21
-83.8562
0
LINE
8
BLACK
6
CONTINUOUS
10
51.858
20
-83.8562
11
51.7828
21
-83.9184
0
LINE
8
BLACK
6
CONTINUOUS
10
51.7828
20
-83.9184
11
51.7827
21
-83.9184
0
LINE
8
BLACK
6
CONTINUOUS
10
51.7827
20
-83.9184
11
51.7823
21
-83.9187
0
LINE
8
BLACK
6
CONTINUOUS
10
51.7823
20
-83.9187
11
51.782
21
-83.9189
0
LINE
8
BLACK
6
CONTINUOUS
10
51.782
20
-83.9189
11
51.6961
21
-83.9653
0
LINE
8
BLACK
6
CONTINUOUS
10
51.6961
20
-83.9653
11
51.6961
21
-83.9654
0
LINE
8
BLACK
6
CONTINUOUS
10
51.6961
20
-83.9654
11
51.6956
21
-83.9656
0
LINE
8
BLACK
6
CONTINUOUS
10
51.6956
20
-83.9656
11
51.6952
21
-83.9657
0
LINE
8
BLACK
6
CONTINUOUS
10
51.6952
20
-83.9657
11
51.6952
21
-83.9657
0
LINE
8
BLACK
6
CONTINUOUS
10
51.6952
20
-83.9657
11
51.6952
21
-83.9657
0
LINE
8
BLACK
6
CONTINUOUS
10
51.6952
20
-83.9657
11
51.6952
21
-83.9657
0
LINE
8
BLACK
6
CONTINUOUS
10
51.6952
20
-83.9657
11
51.602
21
-83.9946
0
LINE
8
BLACK
6
CONTINUOUS
10
51.602
20
-83.9946
11
51.602
21
-83.9946
0
LINE
8
BLACK
6
CONTINUOUS
10
51.602
20
-83.9946
11
51.602
21
-83.9946
0
LINE
8
BLACK
6
CONTINUOUS
10
38.5
20
-70.005
11
38.4968
21
-70.005
0
LINE
8
BLACK
6
CONTINUOUS
10
38.4968
20
-70.005
11
38.4005
21
-70.0151
0
LINE
8
BLACK
6
CONTINUOUS
10
38.4005
20
-70.0151
11
38.3082
21
-70.0437
0
LINE
8
BLACK
6
CONTINUOUS
10
38.3082
20
-70.0437
11
38.2232
21
-70.0896
0
LINE
8
BLACK
6
CONTINUOUS
10
38.2232
20
-70.0896
11
38.1488
21
-70.1512
0
LINE
8
BLACK
6
CONTINUOUS
10
38.1488
20
-70.1512
11
38.0877
21
-70.2261
0
LINE
8
BLACK
6
CONTINUOUS
10
38.0877
20
-70.2261
11
38.0424
21
-70.3114
0
LINE
8
BLACK
6
CONTINUOUS
10
38.0424
20
-70.3114
11
38.0145
21
-70.4039
0
LINE
8
BLACK
6
CONTINUOUS
10
38.0145
20
-70.4039
11
38.005
21
-70.5002
0
LINE
8
BLACK
6
CONTINUOUS
10
38.005
20
-70.5002
11
38.005
21
-83.4909
0
LINE
8
BLACK
6
CONTINUOUS
10
38.005
20
-83.4909
11
38.005
21
-83.4941
0
LINE
8
BLACK
6
CONTINUOUS
10
38.005
20
-83.4941
11
38.0151
21
-83.5905
0
LINE
8
BLACK
6
CONTINUOUS
10
38.0151
20
-83.5905
11
38.0437
21
-83.6827
0
LINE
8
BLACK
6
CONTINUOUS
10
38.0437
20
-83.6827
11
38.0896
21
-83.7677
0
LINE
8
BLACK
6
CONTINUOUS
10
38.0896
20
-83.7677
11
38.1512
21
-83.8421
0
LINE
8
BLACK
6
CONTINUOUS
10
38.1512
20
-83.8421
11
38.2261
21
-83.9032
0
LINE
8
BLACK
6
CONTINUOUS
10
38.2261
20
-83.9032
11
38.3114
21
-83.9485
0
LINE
8
BLACK
6
CONTINUOUS
10
38.3114
20
-83.9485
11
38.4039
21
-83.9765
0
LINE
8
BLACK
6
CONTINUOUS
10
38.4039
20
-83.9765
11
38.5002
21
-83.9859
0
LINE
8
BLACK
6
CONTINUOUS
10
38.5002
20
-83.9859
11
51.5
21
-83.995
0
LINE
8
BLACK
6
CONTINUOUS
10
51.5
20
-83.995
11
51.5032
21
-83.995
0
LINE
8
BLACK
6
CONTINUOUS
10
51.5032
20
-83.995
11
51.5995
21
-83.9849
0
LINE
8
BLACK
6
CONTINUOUS
10
51.5995
20
-83.9849
11
51.6918
21
-83.9563
0
LINE
8
BLACK
6
CONTINUOUS
10
51.6918
20
-83.9563
11
51.7768
21
-83.9104
0
LINE
8
BLACK
6
CONTINUOUS
10
51.7768
20
-83.9104
11
51.8512
21
-83.8488
0
LINE
8
BLACK
6
CONTINUOUS
10
51.8512
20
-83.8488
11
51.9123
21
-83.7739
0
LINE
8
BLACK
6
CONTINUOUS
10
51.9123
20
-83.7739
11
51.9576
21
-83.6886
0
LINE
8
BLACK
6
CONTINUOUS
10
51.9576
20
-83.6886
11
51.9855
21
-83.5961
0
LINE
8
BLACK
6
CONTINUOUS
10
51.9855
20
-83.5961
11
51.995
21
-83.4997
0
LINE
8
BLACK
6
CONTINUOUS
10
51.995
20
-83.4997
11
51.995
21
-70.5
0
LINE
8
BLACK
6
CONTINUOUS
10
51.995
20
-70.5
11
51.995
21
-70.4968
0
LINE
8
BLACK
6
CONTINUOUS
10
51.995
20
-70.4968
11
51.9849
21
-70.4005
0
LINE
8
BLACK
6
CONTINUOUS
10
51.9849
20
-70.4005
11
51.9563
21
-70.3082
0
LINE
8
BLACK
6
CONTINUOUS
10
51.9563
20
-70.3082
11
51.9104
21
-70.2232
0
LINE
8
BLACK
6
CONTINUOUS
10
51.9104
20
-70.2232
11
51.8488
21
-70.1488
0
LINE
8
BLACK
6
CONTINUOUS
10
51.8488
20
-70.1488
11
51.7739
21
-70.0877
0
LINE
8
BLACK
6
CONTINUOUS
10
51.7739
20
-70.0877
11
51.6886
21
-70.0424
0
LINE
8
BLACK
6
CONTINUOUS
10
51.6886
20
-70.0424
11
51.5961
21
-70.0145
0
LINE
8
BLACK
6
CONTINUOUS
10
51.5961
20
-70.0145
11
51.4998
21
-70.005
0
LINE
8
BLACK
6
CONTINUOUS
10
51.4998
20
-70.005
11
38.5
21
-70.005
0
LINE
8
BLACK
6
CONTINUOUS
10
127.602
20
-72.9946
11
127.601
21
-72.9947
0
LINE
8
BLACK
6
CONTINUOUS
10
127.601
20
-72.9947
11
127.601
21
-72.9948
0
LINE
8
BLACK
6
CONTINUOUS
10
127.601
20
-72.9948
11
127.504
21
-73.005
0
LINE
8
BLACK
6
CONTINUOUS
10
127.504
20
-73.005
11
127.504
21
-73.005
0
LINE
8
BLACK
6
CONTINUOUS
10
127.504
20
-73.005
11
127.504
21
-73.005
0
LINE
8
BLACK
6
CONTINUOUS
10
127.504
20
-73.005
11
127.504
21
-73.005
0
LINE
8
BLACK
6
CONTINUOUS
10
127.504
20
-73.005
11
127.5
21
-73.005
0
LINE
8
BLACK
6
CONTINUOUS
10
127.5
20
-73.005
11
127.5
21
-73.005
0
LINE
8
BLACK
6
CONTINUOUS
10
127.5
20
-73.005
11
127.5
21
-73.005
0
LINE
8
BLACK
6
CONTINUOUS
10
127.5
20
-73.005
11
114.5
21
-72.9959
0
LINE
8
BLACK
6
CONTINUOUS
10
114.5
20
-72.9959
11
114.5
21
-72.9959
0
LINE
8
BLACK
6
CONTINUOUS
10
114.5
20
-72.9959
11
114.5
21
-72.9959
0
LINE
8
BLACK
6
CONTINUOUS
10
114.5
20
-72.9959
11
114.402
21
-72.9864
0
LINE
8
BLACK
6
CONTINUOUS
10
114.402
20
-72.9864
11
114.402
21
-72.9864
0
LINE
8
BLACK
6
CONTINUOUS
10
114.402
20
-72.9864
11
114.402
21
-72.9863
0
LINE
8
BLACK
6
CONTINUOUS
10
114.402
20
-72.9863
11
114.401
21
-72.9862
0
LINE
8
BLACK
6
CONTINUOUS
10
114.401
20
-72.9862
11
114.401
21
-72.9862
0
LINE
8
BLACK
6
CONTINUOUS
10
114.401
20
-72.9862
11
114.401
21
-72.9862
0
LINE
8
BLACK
6
CONTINUOUS
10
114.401
20
-72.9862
11
114.401
21
-72.9862
0
LINE
8
BLACK
6
CONTINUOUS
10
114.401
20
-72.9862
11
114.308
21
-72.958
0
LINE
8
BLACK
6
CONTINUOUS
10
114.308
20
-72.958
11
114.308
21
-72.958
0
LINE
8
BLACK
6
CONTINUOUS
10
114.308
20
-72.958
11
114.308
21
-72.958
0
LINE
8
BLACK
6
CONTINUOUS
10
114.308
20
-72.958
11
114.308
21
-72.958
0
LINE
8
BLACK
6
CONTINUOUS
10
114.308
20
-72.958
11
114.307
21
-72.9578
0
LINE
8
BLACK
6
CONTINUOUS
10
114.307
20
-72.9578
11
114.307
21
-72.9576
0
LINE
8
BLACK
6
CONTINUOUS
10
114.307
20
-72.9576
11
114.307
21
-72.9576
0
LINE
8
BLACK
6
CONTINUOUS
10
114.307
20
-72.9576
11
114.307
21
-72.9576
0
LINE
8
BLACK
6
CONTINUOUS
10
114.307
20
-72.9576
11
114.307
21
-72.9576
0
LINE
8
BLACK
6
CONTINUOUS
10
114.307
20
-72.9576
11
114.221
21
-72.9118
0
LINE
8
BLACK
6
CONTINUOUS
10
114.221
20
-72.9118
11
114.221
21
-72.9118
0
LINE
8
BLACK
6
CONTINUOUS
10
114.221
20
-72.9118
11
114.221
21
-72.9118
0
LINE
8
BLACK
6
CONTINUOUS
10
114.221
20
-72.9118
11
114.221
21
-72.9118
0
LINE
8
BLACK
6
CONTINUOUS
10
114.221
20
-72.9118
11
114.22
21
-72.9115
0
LINE
8
BLACK
6
CONTINUOUS
10
114.22
20
-72.9115
11
114.22
21
-72.9113
0
LINE
8
BLACK
6
CONTINUOUS
10
114.22
20
-72.9113
11
114.145
21
-72.8496
0
LINE
8
BLACK
6
CONTINUOUS
10
114.145
20
-72.8496
11
114.144
21
-72.8495
0
LINE
8
BLACK
6
CONTINUOUS
10
114.144
20
-72.8495
11
114.144
21
-72.8492
0
LINE
8
BLACK
6
CONTINUOUS
10
114.144
20
-72.8492
11
114.144
21
-72.8489
0
LINE
8
BLACK
6
CONTINUOUS
10
114.144
20
-72.8489
11
114.082
21
-72.7737
0
LINE
8
BLACK
6
CONTINUOUS
10
114.082
20
-72.7737
11
114.082
21
-72.7737
0
LINE
8
BLACK
6
CONTINUOUS
10
114.082
20
-72.7737
11
114.081
21
-72.7733
0
LINE
8
BLACK
6
CONTINUOUS
10
114.081
20
-72.7733
11
114.081
21
-72.7729
0
LINE
8
BLACK
6
CONTINUOUS
10
114.081
20
-72.7729
11
114.035
21
-72.6871
0
LINE
8
BLACK
6
CONTINUOUS
10
114.035
20
-72.6871
11
114.035
21
-72.687
0
LINE
8
BLACK
6
CONTINUOUS
10
114.035
20
-72.687
11
114.034
21
-72.6865
0
LINE
8
BLACK
6
CONTINUOUS
10
114.034
20
-72.6865
11
114.034
21
-72.6862
0
LINE
8
BLACK
6
CONTINUOUS
10
114.034
20
-72.6862
11
114.034
21
-72.6861
0
LINE
8
BLACK
6
CONTINUOUS
10
114.034
20
-72.6861
11
114.034
21
-72.6861
0
LINE
8
BLACK
6
CONTINUOUS
10
114.034
20
-72.6861
11
114.034
21
-72.6861
0
LINE
8
BLACK
6
CONTINUOUS
10
114.034
20
-72.6861
11
114.005
21
-72.5929
0
LINE
8
BLACK
6
CONTINUOUS
10
114.005
20
-72.5929
11
114.005
21
-72.5929
0
LINE
8
BLACK
6
CONTINUOUS
10
114.005
20
-72.5929
11
114.005
21
-72.5924
0
LINE
8
BLACK
6
CONTINUOUS
10
114.005
20
-72.5924
11
114.005
21
-72.592
0
LINE
8
BLACK
6
CONTINUOUS
10
114.005
20
-72.592
11
113.995
21
-72.4949
0
LINE
8
BLACK
6
CONTINUOUS
10
113.995
20
-72.4949
11
113.995
21
-72.4949
0
LINE
8
BLACK
6
CONTINUOUS
10
113.995
20
-72.4949
11
113.995
21
-72.4946
0
LINE
8
BLACK
6
CONTINUOUS
10
113.995
20
-72.4946
11
113.995
21
-72.4944
0
LINE
8
BLACK
6
CONTINUOUS
10
113.995
20
-72.4944
11
113.995
21
-72.4909
0
LINE
8
BLACK
6
CONTINUOUS
10
113.995
20
-72.4909
11
113.995
21
-72.4909
0
LINE
8
BLACK
6
CONTINUOUS
10
113.995
20
-72.4909
11
113.995
21
-72.4909
0
LINE
8
BLACK
6
CONTINUOUS
10
113.995
20
-72.4909
11
113.995
21
-59.4998
0
LINE
8
BLACK
6
CONTINUOUS
10
113.995
20
-59.4998
11
113.995
21
-59.4995
0
LINE
8
BLACK
6
CONTINUOUS
10
113.995
20
-59.4995
11
114.005
21
-59.4024
0
LINE
8
BLACK
6
CONTINUOUS
10
114.005
20
-59.4024
11
114.005
21
-59.4023
0
LINE
8
BLACK
6
CONTINUOUS
10
114.005
20
-59.4023
11
114.005
21
-59.4018
0
LINE
8
BLACK
6
CONTINUOUS
10
114.005
20
-59.4018
11
114.005
21
-59.4014
0
LINE
8
BLACK
6
CONTINUOUS
10
114.005
20
-59.4014
11
114.033
21
-59.308
0
LINE
8
BLACK
6
CONTINUOUS
10
114.033
20
-59.308
11
114.033
21
-59.308
0
LINE
8
BLACK
6
CONTINUOUS
10
114.033
20
-59.308
11
114.033
21
-59.308
0
LINE
8
BLACK
6
CONTINUOUS
10
114.033
20
-59.308
11
114.033
21
-59.308
0
LINE
8
BLACK
6
CONTINUOUS
10
114.033
20
-59.308
11
114.033
21
-59.3075
0
LINE
8
BLACK
6
CONTINUOUS
10
114.033
20
-59.3075
11
114.033
21
-59.3071
0
LINE
8
BLACK
6
CONTINUOUS
10
114.033
20
-59.3071
11
114.079
21
-59.221
0
LINE
8
BLACK
6
CONTINUOUS
10
114.079
20
-59.221
11
114.079
21
-59.221
0
LINE
8
BLACK
6
CONTINUOUS
10
114.079
20
-59.221
11
114.079
21
-59.2209
0
LINE
8
BLACK
6
CONTINUOUS
10
114.079
20
-59.2209
11
114.079
21
-59.2209
0
LINE
8
BLACK
6
CONTINUOUS
10
114.079
20
-59.2209
11
114.079
21
-59.2205
0
LINE
8
BLACK
6
CONTINUOUS
10
114.079
20
-59.2205
11
114.08
21
-59.2201
0
LINE
8
BLACK
6
CONTINUOUS
10
114.08
20
-59.2201
11
114.141
21
-59.1445
0
LINE
8
BLACK
6
CONTINUOUS
10
114.141
20
-59.1445
11
114.141
21
-59.1445
0
LINE
8
BLACK
6
CONTINUOUS
10
114.141
20
-59.1445
11
114.142
21
-59.1441
0
LINE
8
BLACK
6
CONTINUOUS
10
114.142
20
-59.1441
11
114.142
21
-59.1438
0
LINE
8
BLACK
6
CONTINUOUS
10
114.142
20
-59.1438
11
114.217
21
-59.0816
0
LINE
8
BLACK
6
CONTINUOUS
10
114.217
20
-59.0816
11
114.217
21
-59.0816
0
LINE
8
BLACK
6
CONTINUOUS
10
114.217
20
-59.0816
11
114.218
21
-59.0813
0
LINE
8
BLACK
6
CONTINUOUS
10
114.218
20
-59.0813
11
114.218
21
-59.0811
0
LINE
8
BLACK
6
CONTINUOUS
10
114.218
20
-59.0811
11
114.304
21
-59.0347
0
LINE
8
BLACK
6
CONTINUOUS
10
114.304
20
-59.0347
11
114.304
21
-59.0346
0
LINE
8
BLACK
6
CONTINUOUS
10
114.304
20
-59.0346
11
114.304
21
-59.0345
0
LINE
8
BLACK
6
CONTINUOUS
10
114.304
20
-59.0345
11
114.305
21
-59.0343
0
LINE
8
BLACK
6
CONTINUOUS
10
114.305
20
-59.0343
11
114.398
21
-59.0054
0
LINE
8
BLACK
6
CONTINUOUS
10
114.398
20
-59.0054
11
114.398
21
-59.0054
0
LINE
8
BLACK
6
CONTINUOUS
10
114.398
20
-59.0054
11
114.398
21
-59.0054
0
LINE
8
BLACK
6
CONTINUOUS
10
114.398
20
-59.0054
11
114.398
21
-59.0054
0
LINE
8
BLACK
6
CONTINUOUS
10
114.398
20
-59.0054
11
114.398
21
-59.0053
0
LINE
8
BLACK
6
CONTINUOUS
10
114.398
20
-59.0053
11
114.399
21
-59.0052
0
LINE
8
BLACK
6
CONTINUOUS
10
114.399
20
-59.0052
11
114.496
21
-58.995
0
LINE
8
BLACK
6
CONTINUOUS
10
114.496
20
-58.995
11
114.496
21
-58.995
0
LINE
8
BLACK
6
CONTINUOUS
10
114.496
20
-58.995
11
114.496
21
-58.995
0
LINE
8
BLACK
6
CONTINUOUS
10
114.496
20
-58.995
11
114.496
21
-58.995
0
LINE
8
BLACK
6
CONTINUOUS
10
114.496
20
-58.995
11
114.5
21
-58.995
0
LINE
8
BLACK
6
CONTINUOUS
10
114.5
20
-58.995
11
114.5
21
-58.995
0
LINE
8
BLACK
6
CONTINUOUS
10
114.5
20
-58.995
11
127.5
21
-58.995
0
LINE
8
BLACK
6
CONTINUOUS
10
127.5
20
-58.995
11
127.5
21
-58.995
0
LINE
8
BLACK
6
CONTINUOUS
10
127.5
20
-58.995
11
127.5
21
-58.995
0
LINE
8
BLACK
6
CONTINUOUS
10
127.5
20
-58.995
11
127.598
21
-59.0045
0
LINE
8
BLACK
6
CONTINUOUS
10
127.598
20
-59.0045
11
127.598
21
-59.0045
0
LINE
8
BLACK
6
CONTINUOUS
10
127.598
20
-59.0045
11
127.598
21
-59.0047
0
LINE
8
BLACK
6
CONTINUOUS
10
127.598
20
-59.0047
11
127.599
21
-59.0047
0
LINE
8
BLACK
6
CONTINUOUS
10
127.599
20
-59.0047
11
127.599
21
-59.0048
0
LINE
8
BLACK
6
CONTINUOUS
10
127.599
20
-59.0048
11
127.599
21
-59.0048
0
LINE
8
BLACK
6
CONTINUOUS
10
127.599
20
-59.0048
11
127.599
21
-59.0048
0
LINE
8
BLACK
6
CONTINUOUS
10
127.599
20
-59.0048
11
127.692
21
-59.0329
0
LINE
8
BLACK
6
CONTINUOUS
10
127.692
20
-59.0329
11
127.692
21
-59.0329
0
LINE
8
BLACK
6
CONTINUOUS
10
127.692
20
-59.0329
11
127.692
21
-59.0329
0
LINE
8
BLACK
6
CONTINUOUS
10
127.692
20
-59.0329
11
127.692
21
-59.033
0
LINE
8
BLACK
6
CONTINUOUS
10
127.692
20
-59.033
11
127.692
21
-59.0331
0
LINE
8
BLACK
6
CONTINUOUS
10
127.692
20
-59.0331
11
127.693
21
-59.0333
0
LINE
8
BLACK
6
CONTINUOUS
10
127.693
20
-59.0333
11
127.693
21
-59.0333
0
LINE
8
BLACK
6
CONTINUOUS
10
127.693
20
-59.0333
11
127.693
21
-59.0333
0
LINE
8
BLACK
6
CONTINUOUS
10
127.693
20
-59.0333
11
127.693
21
-59.0333
0
LINE
8
BLACK
6
CONTINUOUS
10
127.693
20
-59.0333
11
127.779
21
-59.0791
0
LINE
8
BLACK
6
CONTINUOUS
10
127.779
20
-59.0791
11
127.779
21
-59.0791
0
LINE
8
BLACK
6
CONTINUOUS
10
127.779
20
-59.0791
11
127.779
21
-59.0791
0
LINE
8
BLACK
6
CONTINUOUS
10
127.779
20
-59.0791
11
127.779
21
-59.0792
0
LINE
8
BLACK
6
CONTINUOUS
10
127.779
20
-59.0792
11
127.779
21
-59.0794
0
LINE
8
BLACK
6
CONTINUOUS
10
127.779
20
-59.0794
11
127.78
21
-59.0797
0
LINE
8
BLACK
6
CONTINUOUS
10
127.78
20
-59.0797
11
127.855
21
-59.1413
0
LINE
8
BLACK
6
CONTINUOUS
10
127.855
20
-59.1413
11
127.856
21
-59.1414
0
LINE
8
BLACK
6
CONTINUOUS
10
127.856
20
-59.1414
11
127.856
21
-59.1417
0
LINE
8
BLACK
6
CONTINUOUS
10
127.856
20
-59.1417
11
127.856
21
-59.142
0
LINE
8
BLACK
6
CONTINUOUS
10
127.856
20
-59.142
11
127.918
21
-59.2172
0
LINE
8
BLACK
6
CONTINUOUS
10
127.918
20
-59.2172
11
127.918
21
-59.2173
0
LINE
8
BLACK
6
CONTINUOUS
10
127.918
20
-59.2173
11
127.919
21
-59.2176
0
LINE
8
BLACK
6
CONTINUOUS
10
127.919
20
-59.2176
11
127.919
21
-59.218
0
LINE
8
BLACK
6
CONTINUOUS
10
127.919
20
-59.218
11
127.965
21
-59.3039
0
LINE
8
BLACK
6
CONTINUOUS
10
127.965
20
-59.3039
11
127.965
21
-59.3039
0
LINE
8
BLACK
6
CONTINUOUS
10
127.965
20
-59.3039
11
127.966
21
-59.3044
0
LINE
8
BLACK
6
CONTINUOUS
10
127.966
20
-59.3044
11
127.966
21
-59.3048
0
LINE
8
BLACK
6
CONTINUOUS
10
127.966
20
-59.3048
11
127.995
21
-59.398
0
LINE
8
BLACK
6
CONTINUOUS
10
127.995
20
-59.398
11
127.995
21
-59.398
0
LINE
8
BLACK
6
CONTINUOUS
10
127.995
20
-59.398
11
127.995
21
-59.398
0
LINE
8
BLACK
6
CONTINUOUS
10
127.995
20
-59.398
11
127.995
21
-59.398
0
LINE
8
BLACK
6
CONTINUOUS
10
127.995
20
-59.398
11
127.995
21
-59.3985
0
LINE
8
BLACK
6
CONTINUOUS
10
127.995
20
-59.3985
11
127.995
21
-59.3989
0
LINE
8
BLACK
6
CONTINUOUS
10
127.995
20
-59.3989
11
128.005
21
-59.496
0
LINE
8
BLACK
6
CONTINUOUS
10
128.005
20
-59.496
11
128.005
21
-59.4961
0
LINE
8
BLACK
6
CONTINUOUS
10
128.005
20
-59.4961
11
128.005
21
-59.4963
0
LINE
8
BLACK
6
CONTINUOUS
10
128.005
20
-59.4963
11
128.005
21
-59.4965
0
LINE
8
BLACK
6
CONTINUOUS
10
128.005
20
-59.4965
11
128.005
21
-59.4997
0
LINE
8
BLACK
6
CONTINUOUS
10
128.005
20
-59.4997
11
128.005
21
-59.4998
0
LINE
8
BLACK
6
CONTINUOUS
10
128.005
20
-59.4998
11
128.005
21
-72.5002
0
LINE
8
BLACK
6
CONTINUOUS
10
128.005
20
-72.5002
11
128.005
21
-72.5005
0
LINE
8
BLACK
6
CONTINUOUS
10
128.005
20
-72.5005
11
128.005
21
-72.5005
0
LINE
8
BLACK
6
CONTINUOUS
10
128.005
20
-72.5005
11
127.995
21
-72.5976
0
LINE
8
BLACK
6
CONTINUOUS
10
127.995
20
-72.5976
11
127.995
21
-72.5977
0
LINE
8
BLACK
6
CONTINUOUS
10
127.995
20
-72.5977
11
127.995
21
-72.5982
0
LINE
8
BLACK
6
CONTINUOUS
10
127.995
20
-72.5982
11
127.995
21
-72.5986
0
LINE
8
BLACK
6
CONTINUOUS
10
127.995
20
-72.5986
11
127.967
21
-72.692
0
LINE
8
BLACK
6
CONTINUOUS
10
127.967
20
-72.692
11
127.967
21
-72.692
0
LINE
8
BLACK
6
CONTINUOUS
10
127.967
20
-72.692
11
127.967
21
-72.692
0
LINE
8
BLACK
6
CONTINUOUS
10
127.967
20
-72.692
11
127.967
21
-72.692
0
LINE
8
BLACK
6
CONTINUOUS
10
127.967
20
-72.692
11
127.967
21
-72.6925
0
LINE
8
BLACK
6
CONTINUOUS
10
127.967
20
-72.6925
11
127.967
21
-72.6929
0
LINE
8
BLACK
6
CONTINUOUS
10
127.967
20
-72.6929
11
127.921
21
-72.779
0
LINE
8
BLACK
6
CONTINUOUS
10
127.921
20
-72.779
11
127.921
21
-72.779
0
LINE
8
BLACK
6
CONTINUOUS
10
127.921
20
-72.779
11
127.921
21
-72.7791
0
LINE
8
BLACK
6
CONTINUOUS
10
127.921
20
-72.7791
11
127.921
21
-72.7791
0
LINE
8
BLACK
6
CONTINUOUS
10
127.921
20
-72.7791
11
127.921
21
-72.7795
0
LINE
8
BLACK
6
CONTINUOUS
10
127.921
20
-72.7795
11
127.92
21
-72.7799
0
LINE
8
BLACK
6
CONTINUOUS
10
127.92
20
-72.7799
11
127.859
21
-72.8555
0
LINE
8
BLACK
6
CONTINUOUS
10
127.859
20
-72.8555
11
127.859
21
-72.8555
0
LINE
8
BLACK
6
CONTINUOUS
10
127.859
20
-72.8555
11
127.858
21
-72.8559
0
LINE
8
BLACK
6
CONTINUOUS
10
127.858
20
-72.8559
11
127.858
21
-72.8562
0
LINE
8
BLACK
6
CONTINUOUS
10
127.858
20
-72.8562
11
127.783
21
-72.9184
0
LINE
8
BLACK
6
CONTINUOUS
10
127.783
20
-72.9184
11
127.783
21
-72.9184
0
LINE
8
BLACK
6
CONTINUOUS
10
127.783
20
-72.9184
11
127.782
21
-72.9187
0
LINE
8
BLACK
6
CONTINUOUS
10
127.782
20
-72.9187
11
127.782
21
-72.9189
0
LINE
8
BLACK
6
CONTINUOUS
10
127.782
20
-72.9189
11
127.696
21
-72.9653
0
LINE
8
BLACK
6
CONTINUOUS
10
127.696
20
-72.9653
11
127.696
21
-72.9654
0
LINE
8
BLACK
6
CONTINUOUS
10
127.696
20
-72.9654
11
127.696
21
-72.9656
0
LINE
8
BLACK
6
CONTINUOUS
10
127.696
20
-72.9656
11
127.695
21
-72.9657
0
LINE
8
BLACK
6
CONTINUOUS
10
127.695
20
-72.9657
11
127.695
21
-72.9657
0
LINE
8
BLACK
6
CONTINUOUS
10
127.695
20
-72.9657
11
127.695
21
-72.9657
0
LINE
8
BLACK
6
CONTINUOUS
10
127.695
20
-72.9657
11
127.695
21
-72.9657
0
LINE
8
BLACK
6
CONTINUOUS
10
127.695
20
-72.9657
11
127.602
21
-72.9946
0
LINE
8
BLACK
6
CONTINUOUS
10
127.602
20
-72.9946
11
127.602
21
-72.9946
0
LINE
8
BLACK
6
CONTINUOUS
10
127.602
20
-72.9946
11
127.602
21
-72.9946
0
LINE
8
BLACK
6
CONTINUOUS
10
114.5
20
-59.005
11
114.497
21
-59.005
0
LINE
8
BLACK
6
CONTINUOUS
10
114.497
20
-59.005
11
114.4
21
-59.0151
0
LINE
8
BLACK
6
CONTINUOUS
10
114.4
20
-59.0151
11
114.308
21
-59.0437
0
LINE
8
BLACK
6
CONTINUOUS
10
114.308
20
-59.0437
11
114.223
21
-59.0896
0
LINE
8
BLACK
6
CONTINUOUS
10
114.223
20
-59.0896
11
114.149
21
-59.1512
0
LINE
8
BLACK
6
CONTINUOUS
10
114.149
20
-59.1512
11
114.088
21
-59.2261
0
LINE
8
BLACK
6
CONTINUOUS
10
114.088
20
-59.2261
11
114.042
21
-59.3114
0
LINE
8
BLACK
6
CONTINUOUS
10
114.042
20
-59.3114
11
114.014
21
-59.4039
0
LINE
8
BLACK
6
CONTINUOUS
10
114.014
20
-59.4039
11
114.005
21
-59.5002
0
LINE
8
BLACK
6
CONTINUOUS
10
114.005
20
-59.5002
11
114.005
21
-72.4909
0
LINE
8
BLACK
6
CONTINUOUS
10
114.005
20
-72.4909
11
114.005
21
-72.4941
0
LINE
8
BLACK
6
CONTINUOUS
10
114.005
20
-72.4941
11
114.015
21
-72.5905
0
LINE
8
BLACK
6
CONTINUOUS
10
114.015
20
-72.5905
11
114.044
21
-72.6827
0
LINE
8
BLACK
6
CONTINUOUS
10
114.044
20
-72.6827
11
114.09
21
-72.7677
0
LINE
8
BLACK
6
CONTINUOUS
10
114.09
20
-72.7677
11
114.151
21
-72.8421
0
LINE
8
BLACK
6
CONTINUOUS
10
114.151
20
-72.8421
11
114.226
21
-72.9032
0
LINE
8
BLACK
6
CONTINUOUS
10
114.226
20
-72.9032
11
114.311
21
-72.9485
0
LINE
8
BLACK
6
CONTINUOUS
10
114.311
20
-72.9485
11
114.404
21
-72.9765
0
LINE
8
BLACK
6
CONTINUOUS
10
114.404
20
-72.9765
11
114.5
21
-72.9859
0
LINE
8
BLACK
6
CONTINUOUS
10
114.5
20
-72.9859
11
127.5
21
-72.995
0
LINE
8
BLACK
6
CONTINUOUS
10
127.5
20
-72.995
11
127.503
21
-72.995
0
LINE
8
BLACK
6
CONTINUOUS
10
127.503
20
-72.995
11
127.6
21
-72.9849
0
LINE
8
BLACK
6
CONTINUOUS
10
127.6
20
-72.9849
11
127.692
21
-72.9563
0
LINE
8
BLACK
6
CONTINUOUS
10
127.692
20
-72.9563
11
127.777
21
-72.9104
0
LINE
8
BLACK
6
CONTINUOUS
10
127.777
20
-72.9104
11
127.851
21
-72.8488
0
LINE
8
BLACK
6
CONTINUOUS
10
127.851
20
-72.8488
11
127.912
21
-72.7739
0
LINE
8
BLACK
6
CONTINUOUS
10
127.912
20
-72.7739
11
127.958
21
-72.6886
0
LINE
8
BLACK
6
CONTINUOUS
10
127.958
20
-72.6886
11
127.986
21
-72.5961
0
LINE
8
BLACK
6
CONTINUOUS
10
127.986
20
-72.5961
11
127.995
21
-72.4997
0
LINE
8
BLACK
6
CONTINUOUS
10
127.995
20
-72.4997
11
127.995
21
-59.5
0
LINE
8
BLACK
6
CONTINUOUS
10
127.995
20
-59.5
11
127.995
21
-59.4968
0
LINE
8
BLACK
6
CONTINUOUS
10
127.995
20
-59.4968
11
127.985
21
-59.4005
0
LINE
8
BLACK
6
CONTINUOUS
10
127.985
20
-59.4005
11
127.956
21
-59.3082
0
LINE
8
BLACK
6
CONTINUOUS
10
127.956
20
-59.3082
11
127.91
21
-59.2232
0
LINE
8
BLACK
6
CONTINUOUS
10
127.91
20
-59.2232
11
127.849
21
-59.1488
0
LINE
8
BLACK
6
CONTINUOUS
10
127.849
20
-59.1488
11
127.774
21
-59.0877
0
LINE
8
BLACK
6
CONTINUOUS
10
127.774
20
-59.0877
11
127.689
21
-59.0424
0
LINE
8
BLACK
6
CONTINUOUS
10
127.689
20
-59.0424
11
127.596
21
-59.0145
0
LINE
8
BLACK
6
CONTINUOUS
10
127.596
20
-59.0145
11
127.5
21
-59.005
0
LINE
8
BLACK
6
CONTINUOUS
10
127.5
20
-59.005
11
114.5
21
-59.005
0
LINE
8
BLACK
6
CONTINUOUS
10
70.602
20
-71.9946
11
70.6015
21
-71.9947
0
LINE
8
BLACK
6
CONTINUOUS
10
70.6015
20
-71.9947
11
70.6011
21
-71.9948
0
LINE
8
BLACK
6
CONTINUOUS
10
70.6011
20
-71.9948
11
70.504
21
-72.005
0
LINE
8
BLACK
6
CONTINUOUS
10
70.504
20
-72.005
11
70.5039
21
-72.005
0
LINE
8
BLACK
6
CONTINUOUS
10
70.5039
20
-72.005
11
70.5037
21
-72.005
0
LINE
8
BLACK
6
CONTINUOUS
10
70.5037
20
-72.005
11
70.5035
21
-72.005
0
LINE
8
BLACK
6
CONTINUOUS
10
70.5035
20
-72.005
11
70.5002
21
-72.005
0
LINE
8
BLACK
6
CONTINUOUS
10
70.5002
20
-72.005
11
70.5002
21
-72.005
0
LINE
8
BLACK
6
CONTINUOUS
10
70.5002
20
-72.005
11
70.4999
21
-72.005
0
LINE
8
BLACK
6
CONTINUOUS
10
70.4999
20
-72.005
11
57.4998
21
-71.9959
0
LINE
8
BLACK
6
CONTINUOUS
10
57.4998
20
-71.9959
11
57.4995
21
-71.9959
0
LINE
8
BLACK
6
CONTINUOUS
10
57.4995
20
-71.9959
11
57.4995
21
-71.9959
0
LINE
8
BLACK
6
CONTINUOUS
10
57.4995
20
-71.9959
11
57.4024
21
-71.9864
0
LINE
8
BLACK
6
CONTINUOUS
10
57.4024
20
-71.9864
11
57.4023
21
-71.9864
0
LINE
8
BLACK
6
CONTINUOUS
10
57.4023
20
-71.9864
11
57.4018
21
-71.9863
0
LINE
8
BLACK
6
CONTINUOUS
10
57.4018
20
-71.9863
11
57.4014
21
-71.9862
0
LINE
8
BLACK
6
CONTINUOUS
10
57.4014
20
-71.9862
11
57.4014
21
-71.9862
0
LINE
8
BLACK
6
CONTINUOUS
10
57.4014
20
-71.9862
11
57.4014
21
-71.9862
0
LINE
8
BLACK
6
CONTINUOUS
10
57.4014
20
-71.9862
11
57.4014
21
-71.9862
0
LINE
8
BLACK
6
CONTINUOUS
10
57.4014
20
-71.9862
11
57.308
21
-71.958
0
LINE
8
BLACK
6
CONTINUOUS
10
57.308
20
-71.958
11
57.308
21
-71.958
0
LINE
8
BLACK
6
CONTINUOUS
10
57.308
20
-71.958
11
57.308
21
-71.958
0
LINE
8
BLACK
6
CONTINUOUS
10
57.308
20
-71.958
11
57.308
21
-71.958
0
LINE
8
BLACK
6
CONTINUOUS
10
57.308
20
-71.958
11
57.3075
21
-71.9578
0
LINE
8
BLACK
6
CONTINUOUS
10
57.3075
20
-71.9578
11
57.3071
21
-71.9576
0
LINE
8
BLACK
6
CONTINUOUS
10
57.3071
20
-71.9576
11
57.3071
21
-71.9576
0
LINE
8
BLACK
6
CONTINUOUS
10
57.3071
20
-71.9576
11
57.3071
21
-71.9576
0
LINE
8
BLACK
6
CONTINUOUS
10
57.3071
20
-71.9576
11
57.3071
21
-71.9576
0
LINE
8
BLACK
6
CONTINUOUS
10
57.3071
20
-71.9576
11
57.221
21
-71.9118
0
LINE
8
BLACK
6
CONTINUOUS
10
57.221
20
-71.9118
11
57.221
21
-71.9118
0
LINE
8
BLACK
6
CONTINUOUS
10
57.221
20
-71.9118
11
57.2209
21
-71.9118
0
LINE
8
BLACK
6
CONTINUOUS
10
57.2209
20
-71.9118
11
57.2209
21
-71.9118
0
LINE
8
BLACK
6
CONTINUOUS
10
57.2209
20
-71.9118
11
57.2205
21
-71.9115
0
LINE
8
BLACK
6
CONTINUOUS
10
57.2205
20
-71.9115
11
57.2201
21
-71.9113
0
LINE
8
BLACK
6
CONTINUOUS
10
57.2201
20
-71.9113
11
57.1445
21
-71.8496
0
LINE
8
BLACK
6
CONTINUOUS
10
57.1445
20
-71.8496
11
57.1445
21
-71.8495
0
LINE
8
BLACK
6
CONTINUOUS
10
57.1445
20
-71.8495
11
57.1441
21
-71.8492
0
LINE
8
BLACK
6
CONTINUOUS
10
57.1441
20
-71.8492
11
57.1438
21
-71.8489
0
LINE
8
BLACK
6
CONTINUOUS
10
57.1438
20
-71.8489
11
57.0816
21
-71.7737
0
LINE
8
BLACK
6
CONTINUOUS
10
57.0816
20
-71.7737
11
57.0816
21
-71.7737
0
LINE
8
BLACK
6
CONTINUOUS
10
57.0816
20
-71.7737
11
57.0813
21
-71.7733
0
LINE
8
BLACK
6
CONTINUOUS
10
57.0813
20
-71.7733
11
57.0811
21
-71.7729
0
LINE
8
BLACK
6
CONTINUOUS
10
57.0811
20
-71.7729
11
57.0347
21
-71.6871
0
LINE
8
BLACK
6
CONTINUOUS
10
57.0347
20
-71.6871
11
57.0346
21
-71.687
0
LINE
8
BLACK
6
CONTINUOUS
10
57.0346
20
-71.687
11
57.0344
21
-71.6865
0
LINE
8
BLACK
6
CONTINUOUS
10
57.0344
20
-71.6865
11
57.0343
21
-71.6862
0
LINE
8
BLACK
6
CONTINUOUS
10
57.0343
20
-71.6862
11
57.0343
21
-71.6861
0
LINE
8
BLACK
6
CONTINUOUS
10
57.0343
20
-71.6861
11
57.0343
21
-71.6861
0
LINE
8
BLACK
6
CONTINUOUS
10
57.0343
20
-71.6861
11
57.0343
21
-71.6861
0
LINE
8
BLACK
6
CONTINUOUS
10
57.0343
20
-71.6861
11
57.0054
21
-71.5929
0
LINE
8
BLACK
6
CONTINUOUS
10
57.0054
20
-71.5929
11
57.0054
21
-71.5929
0
LINE
8
BLACK
6
CONTINUOUS
10
57.0054
20
-71.5929
11
57.0053
21
-71.5924
0
LINE
8
BLACK
6
CONTINUOUS
10
57.0053
20
-71.5924
11
57.0052
21
-71.592
0
LINE
8
BLACK
6
CONTINUOUS
10
57.0052
20
-71.592
11
56.995
21
-71.4949
0
LINE
8
BLACK
6
CONTINUOUS
10
56.995
20
-71.4949
11
56.995
21
-71.4949
0
LINE
8
BLACK
6
CONTINUOUS
10
56.995
20
-71.4949
11
56.995
21
-71.4946
0
LINE
8
BLACK
6
CONTINUOUS
10
56.995
20
-71.4946
11
56.995
21
-71.4944
0
LINE
8
BLACK
6
CONTINUOUS
10
56.995
20
-71.4944
11
56.995
21
-71.4909
0
LINE
8
BLACK
6
CONTINUOUS
10
56.995
20
-71.4909
11
56.995
21
-71.4909
0
LINE
8
BLACK
6
CONTINUOUS
10
56.995
20
-71.4909
11
56.995
21
-71.4909
0
LINE
8
BLACK
6
CONTINUOUS
10
56.995
20
-71.4909
11
56.995
21
-58.4998
0
LINE
8
BLACK
6
CONTINUOUS
10
56.995
20
-58.4998
11
56.995
21
-58.4995
0
LINE
8
BLACK
6
CONTINUOUS
10
56.995
20
-58.4995
11
57.0045
21
-58.4024
0
LINE
8
BLACK
6
CONTINUOUS
10
57.0045
20
-58.4024
11
57.0045
21
-58.4023
0
LINE
8
BLACK
6
CONTINUOUS
10
57.0045
20
-58.4023
11
57.0047
21
-58.4018
0
LINE
8
BLACK
6
CONTINUOUS
10
57.0047
20
-58.4018
11
57.0047
21
-58.4014
0
LINE
8
BLACK
6
CONTINUOUS
10
57.0047
20
-58.4014
11
57.0329
21
-58.308
0
LINE
8
BLACK
6
CONTINUOUS
10
57.0329
20
-58.308
11
57.0329
21
-58.308
0
LINE
8
BLACK
6
CONTINUOUS
10
57.0329
20
-58.308
11
57.0329
21
-58.308
0
LINE
8
BLACK
6
CONTINUOUS
10
57.0329
20
-58.308
11
57.033
21
-58.308
0
LINE
8
BLACK
6
CONTINUOUS
10
57.033
20
-58.308
11
57.0331
21
-58.3075
0
LINE
8
BLACK
6
CONTINUOUS
10
57.0331
20
-58.3075
11
57.0333
21
-58.3071
0
LINE
8
BLACK
6
CONTINUOUS
10
57.0333
20
-58.3071
11
57.0791
21
-58.221
0
LINE
8
BLACK
6
CONTINUOUS
10
57.0791
20
-58.221
11
57.0791
21
-58.221
0
LINE
8
BLACK
6
CONTINUOUS
10
57.0791
20
-58.221
11
57.0791
21
-58.2209
0
LINE
8
BLACK
6
CONTINUOUS
10
57.0791
20
-58.2209
11
57.0792
21
-58.2209
0
LINE
8
BLACK
6
CONTINUOUS
10
57.0792
20
-58.2209
11
57.0794
21
-58.2205
0
LINE
8
BLACK
6
CONTINUOUS
10
57.0794
20
-58.2205
11
57.0797
21
-58.2201
0
LINE
8
BLACK
6
CONTINUOUS
10
57.0797
20
-58.2201
11
57.1413
21
-58.1445
0
LINE
8
BLACK
6
CONTINUOUS
10
57.1413
20
-58.1445
11
57.1414
21
-58.1445
0
LINE
8
BLACK
6
CONTINUOUS
10
57.1414
20
-58.1445
11
57.1417
21
-58.1441
0
LINE
8
BLACK
6
CONTINUOUS
10
57.1417
20
-58.1441
11
57.142
21
-58.1438
0
LINE
8
BLACK
6
CONTINUOUS
10
57.142
20
-58.1438
11
57.2172
21
-58.0816
0
LINE
8
BLACK
6
CONTINUOUS
10
57.2172
20
-58.0816
11
57.2173
21
-58.0816
0
LINE
8
BLACK
6
CONTINUOUS
10
57.2173
20
-58.0816
11
57.2176
21
-58.0813
0
LINE
8
BLACK
6
CONTINUOUS
10
57.2176
20
-58.0813
11
57.218
21
-58.0811
0
LINE
8
BLACK
6
CONTINUOUS
10
57.218
20
-58.0811
11
57.3039
21
-58.0347
0
LINE
8
BLACK
6
CONTINUOUS
10
57.3039
20
-58.0347
11
57.3039
21
-58.0346
0
LINE
8
BLACK
6
CONTINUOUS
10
57.3039
20
-58.0346
11
57.3044
21
-58.0345
0
LINE
8
BLACK
6
CONTINUOUS
10
57.3044
20
-58.0345
11
57.3048
21
-58.0343
0
LINE
8
BLACK
6
CONTINUOUS
10
57.3048
20
-58.0343
11
57.398
21
-58.0054
0
LINE
8
BLACK
6
CONTINUOUS
10
57.398
20
-58.0054
11
57.398
21
-58.0054
0
LINE
8
BLACK
6
CONTINUOUS
10
57.398
20
-58.0054
11
57.398
21
-58.0054
0
LINE
8
BLACK
6
CONTINUOUS
10
57.398
20
-58.0054
11
57.398
21
-58.0054
0
LINE
8
BLACK
6
CONTINUOUS
10
57.398
20
-58.0054
11
57.3985
21
-58.0053
0
LINE
8
BLACK
6
CONTINUOUS
10
57.3985
20
-58.0053
11
57.3989
21
-58.0052
0
LINE
8
BLACK
6
CONTINUOUS
10
57.3989
20
-58.0052
11
57.496
21
-57.995
0
LINE
8
BLACK
6
CONTINUOUS
10
57.496
20
-57.995
11
57.4961
21
-57.995
0
LINE
8
BLACK
6
CONTINUOUS
10
57.4961
20
-57.995
11
57.4963
21
-57.995
0
LINE
8
BLACK
6
CONTINUOUS
10
57.4963
20
-57.995
11
57.4965
21
-57.995
0
LINE
8
BLACK
6
CONTINUOUS
10
57.4965
20
-57.995
11
57.4997
21
-57.995
0
LINE
8
BLACK
6
CONTINUOUS
10
57.4997
20
-57.995
11
57.4998
21
-57.995
0
LINE
8
BLACK
6
CONTINUOUS
10
57.4998
20
-57.995
11
70.5002
21
-57.995
0
LINE
8
BLACK
6
CONTINUOUS
10
70.5002
20
-57.995
11
70.5005
21
-57.995
0
LINE
8
BLACK
6
CONTINUOUS
10
70.5005
20
-57.995
11
70.5005
21
-57.995
0
LINE
8
BLACK
6
CONTINUOUS
10
70.5005
20
-57.995
11
70.5976
21
-58.0045
0
LINE
8
BLACK
6
CONTINUOUS
10
70.5976
20
-58.0045
11
70.5977
21
-58.0045
0
LINE
8
BLACK
6
CONTINUOUS
10
70.5977
20
-58.0045
11
70.5982
21
-58.0047
0
LINE
8
BLACK
6
CONTINUOUS
10
70.5982
20
-58.0047
11
70.5986
21
-58.0047
0
LINE
8
BLACK
6
CONTINUOUS
10
70.5986
20
-58.0047
11
70.5986
21
-58.0048
0
LINE
8
BLACK
6
CONTINUOUS
10
70.5986
20
-58.0048
11
70.5986
21
-58.0048
0
LINE
8
BLACK
6
CONTINUOUS
10
70.5986
20
-58.0048
11
70.5986
21
-58.0048
0
LINE
8
BLACK
6
CONTINUOUS
10
70.5986
20
-58.0048
11
70.692
21
-58.0329
0
LINE
8
BLACK
6
CONTINUOUS
10
70.692
20
-58.0329
11
70.692
21
-58.0329
0
LINE
8
BLACK
6
CONTINUOUS
10
70.692
20
-58.0329
11
70.692
21
-58.0329
0
LINE
8
BLACK
6
CONTINUOUS
10
70.692
20
-58.0329
11
70.692
21
-58.033
0
LINE
8
BLACK
6
CONTINUOUS
10
70.692
20
-58.033
11
70.6925
21
-58.0331
0
LINE
8
BLACK
6
CONTINUOUS
10
70.6925
20
-58.0331
11
70.6929
21
-58.0333
0
LINE
8
BLACK
6
CONTINUOUS
10
70.6929
20
-58.0333
11
70.6929
21
-58.0333
0
LINE
8
BLACK
6
CONTINUOUS
10
70.6929
20
-58.0333
11
70.6929
21
-58.0333
0
LINE
8
BLACK
6
CONTINUOUS
10
70.6929
20
-58.0333
11
70.6929
21
-58.0333
0
LINE
8
BLACK
6
CONTINUOUS
10
70.6929
20
-58.0333
11
70.779
21
-58.0791
0
LINE
8
BLACK
6
CONTINUOUS
10
70.779
20
-58.0791
11
70.779
21
-58.0791
0
LINE
8
BLACK
6
CONTINUOUS
10
70.779
20
-58.0791
11
70.7791
21
-58.0791
0
LINE
8
BLACK
6
CONTINUOUS
10
70.7791
20
-58.0791
11
70.7791
21
-58.0792
0
LINE
8
BLACK
6
CONTINUOUS
10
70.7791
20
-58.0792
11
70.7795
21
-58.0794
0
LINE
8
BLACK
6
CONTINUOUS
10
70.7795
20
-58.0794
11
70.7799
21
-58.0797
0
LINE
8
BLACK
6
CONTINUOUS
10
70.7799
20
-58.0797
11
70.8555
21
-58.1413
0
LINE
8
BLACK
6
CONTINUOUS
10
70.8555
20
-58.1413
11
70.8555
21
-58.1414
0
LINE
8
BLACK
6
CONTINUOUS
10
70.8555
20
-58.1414
11
70.8559
21
-58.1417
0
LINE
8
BLACK
6
CONTINUOUS
10
70.8559
20
-58.1417
11
70.8562
21
-58.142
0
LINE
8
BLACK
6
CONTINUOUS
10
70.8562
20
-58.142
11
70.9184
21
-58.2172
0
LINE
8
BLACK
6
CONTINUOUS
10
70.9184
20
-58.2172
11
70.9184
21
-58.2173
0
LINE
8
BLACK
6
CONTINUOUS
10
70.9184
20
-58.2173
11
70.9187
21
-58.2176
0
LINE
8
BLACK
6
CONTINUOUS
10
70.9187
20
-58.2176
11
70.9189
21
-58.218
0
LINE
8
BLACK
6
CONTINUOUS
10
70.9189
20
-58.218
11
70.9653
21
-58.3039
0
LINE
8
BLACK
6
CONTINUOUS
10
70.9653
20
-58.3039
11
70.9654
21
-58.3039
0
LINE
8
BLACK
6
CONTINUOUS
10
70.9654
20
-58.3039
11
70.9655
21
-58.3044
0
LINE
8
BLACK
6
CONTINUOUS
10
70.9655
20
-58.3044
11
70.9657
21
-58.3048
0
LINE
8
BLACK
6
CONTINUOUS
10
70.9657
20
-58.3048
11
70.9946
21
-58.398
0
LINE
8
BLACK
6
CONTINUOUS
10
70.9946
20
-58.398
11
70.9946
21
-58.398
0
LINE
8
BLACK
6
CONTINUOUS
10
70.9946
20
-58.398
11
70.9946
21
-58.398
0
LINE
8
BLACK
6
CONTINUOUS
10
70.9946
20
-58.398
11
70.9946
21
-58.398
0
LINE
8
BLACK
6
CONTINUOUS
10
70.9946
20
-58.398
11
70.9947
21
-58.3985
0
LINE
8
BLACK
6
CONTINUOUS
10
70.9947
20
-58.3985
11
70.9948
21
-58.3989
0
LINE
8
BLACK
6
CONTINUOUS
10
70.9948
20
-58.3989
11
71.005
21
-58.496
0
LINE
8
BLACK
6
CONTINUOUS
10
71.005
20
-58.496
11
71.005
21
-58.4961
0
LINE
8
BLACK
6
CONTINUOUS
10
71.005
20
-58.4961
11
71.005
21
-58.4963
0
LINE
8
BLACK
6
CONTINUOUS
10
71.005
20
-58.4963
11
71.005
21
-58.4965
0
LINE
8
BLACK
6
CONTINUOUS
10
71.005
20
-58.4965
11
71.005
21
-58.4997
0
LINE
8
BLACK
6
CONTINUOUS
10
71.005
20
-58.4997
11
71.005
21
-58.4998
0
LINE
8
BLACK
6
CONTINUOUS
10
71.005
20
-58.4998
11
71.005
21
-71.5002
0
LINE
8
BLACK
6
CONTINUOUS
10
71.005
20
-71.5002
11
71.005
21
-71.5005
0
LINE
8
BLACK
6
CONTINUOUS
10
71.005
20
-71.5005
11
71.005
21
-71.5005
0
LINE
8
BLACK
6
CONTINUOUS
10
71.005
20
-71.5005
11
70.9955
21
-71.5976
0
LINE
8
BLACK
6
CONTINUOUS
10
70.9955
20
-71.5976
11
70.9954
21
-71.5977
0
LINE
8
BLACK
6
CONTINUOUS
10
70.9954
20
-71.5977
11
70.9953
21
-71.5982
0
LINE
8
BLACK
6
CONTINUOUS
10
70.9953
20
-71.5982
11
70.9953
21
-71.5986
0
LINE
8
BLACK
6
CONTINUOUS
10
70.9953
20
-71.5986
11
70.9671
21
-71.692
0
LINE
8
BLACK
6
CONTINUOUS
10
70.9671
20
-71.692
11
70.9671
21
-71.692
0
LINE
8
BLACK
6
CONTINUOUS
10
70.9671
20
-71.692
11
70.9671
21
-71.692
0
LINE
8
BLACK
6
CONTINUOUS
10
70.9671
20
-71.692
11
70.967
21
-71.692
0
LINE
8
BLACK
6
CONTINUOUS
10
70.967
20
-71.692
11
70.9669
21
-71.6925
0
LINE
8
BLACK
6
CONTINUOUS
10
70.9669
20
-71.6925
11
70.9667
21
-71.6929
0
LINE
8
BLACK
6
CONTINUOUS
10
70.9667
20
-71.6929
11
70.9209
21
-71.779
0
LINE
8
BLACK
6
CONTINUOUS
10
70.9209
20
-71.779
11
70.9209
21
-71.779
0
LINE
8
BLACK
6
CONTINUOUS
10
70.9209
20
-71.779
11
70.9209
21
-71.7791
0
LINE
8
BLACK
6
CONTINUOUS
10
70.9209
20
-71.7791
11
70.9208
21
-71.7791
0
LINE
8
BLACK
6
CONTINUOUS
10
70.9208
20
-71.7791
11
70.9206
21
-71.7795
0
LINE
8
BLACK
6
CONTINUOUS
10
70.9206
20
-71.7795
11
70.9203
21
-71.7799
0
LINE
8
BLACK
6
CONTINUOUS
10
70.9203
20
-71.7799
11
70.8587
21
-71.8555
0
LINE
8
BLACK
6
CONTINUOUS
10
70.8587
20
-71.8555
11
70.8586
21
-71.8555
0
LINE
8
BLACK
6
CONTINUOUS
10
70.8586
20
-71.8555
11
70.8583
21
-71.8559
0
LINE
8
BLACK
6
CONTINUOUS
10
70.8583
20
-71.8559
11
70.858
21
-71.8562
0
LINE
8
BLACK
6
CONTINUOUS
10
70.858
20
-71.8562
11
70.7828
21
-71.9184
0
LINE
8
BLACK
6
CONTINUOUS
10
70.7828
20
-71.9184
11
70.7827
21
-71.9184
0
LINE
8
BLACK
6
CONTINUOUS
10
70.7827
20
-71.9184
11
70.7823
21
-71.9187
0
LINE
8
BLACK
6
CONTINUOUS
10
70.7823
20
-71.9187
11
70.782
21
-71.9189
0
LINE
8
BLACK
6
CONTINUOUS
10
70.782
20
-71.9189
11
70.6961
21
-71.9653
0
LINE
8
BLACK
6
CONTINUOUS
10
70.6961
20
-71.9653
11
70.6961
21
-71.9654
0
LINE
8
BLACK
6
CONTINUOUS
10
70.6961
20
-71.9654
11
70.6956
21
-71.9656
0
LINE
8
BLACK
6
CONTINUOUS
10
70.6956
20
-71.9656
11
70.6952
21
-71.9657
0
LINE
8
BLACK
6
CONTINUOUS
10
70.6952
20
-71.9657
11
70.6952
21
-71.9657
0
LINE
8
BLACK
6
CONTINUOUS
10
70.6952
20
-71.9657
11
70.6952
21
-71.9657
0
LINE
8
BLACK
6
CONTINUOUS
10
70.6952
20
-71.9657
11
70.6952
21
-71.9657
0
LINE
8
BLACK
6
CONTINUOUS
10
70.6952
20
-71.9657
11
70.602
21
-71.9946
0
LINE
8
BLACK
6
CONTINUOUS
10
70.602
20
-71.9946
11
70.602
21
-71.9946
0
LINE
8
BLACK
6
CONTINUOUS
10
70.602
20
-71.9946
11
70.602
21
-71.9946
0
LINE
8
BLACK
6
CONTINUOUS
10
57.5
20
-58.005
11
57.4968
21
-58.005
0
LINE
8
BLACK
6
CONTINUOUS
10
57.4968
20
-58.005
11
57.4005
21
-58.0151
0
LINE
8
BLACK
6
CONTINUOUS
10
57.4005
20
-58.0151
11
57.3082
21
-58.0437
0
LINE
8
BLACK
6
CONTINUOUS
10
57.3082
20
-58.0437
11
57.2232
21
-58.0896
0
LINE
8
BLACK
6
CONTINUOUS
10
57.2232
20
-58.0896
11
57.1488
21
-58.1512
0
LINE
8
BLACK
6
CONTINUOUS
10
57.1488
20
-58.1512
11
57.0877
21
-58.2261
0
LINE
8
BLACK
6
CONTINUOUS
10
57.0877
20
-58.2261
11
57.0424
21
-58.3114
0
LINE
8
BLACK
6
CONTINUOUS
10
57.0424
20
-58.3114
11
57.0145
21
-58.4039
0
LINE
8
BLACK
6
CONTINUOUS
10
57.0145
20
-58.4039
11
57.005
21
-58.5002
0
LINE
8
BLACK
6
CONTINUOUS
10
57.005
20
-58.5002
11
57.005
21
-71.4909
0
LINE
8
BLACK
6
CONTINUOUS
10
57.005
20
-71.4909
11
57.005
21
-71.4941
0
LINE
8
BLACK
6
CONTINUOUS
10
57.005
20
-71.4941
11
57.0151
21
-71.5905
0
LINE
8
BLACK
6
CONTINUOUS
10
57.0151
20
-71.5905
11
57.0437
21
-71.6827
0
LINE
8
BLACK
6
CONTINUOUS
10
57.0437
20
-71.6827
11
57.0896
21
-71.7677
0
LINE
8
BLACK
6
CONTINUOUS
10
57.0896
20
-71.7677
11
57.1512
21
-71.8421
0
LINE
8
BLACK
6
CONTINUOUS
10
57.1512
20
-71.8421
11
57.2261
21
-71.9032
0
LINE
8
BLACK
6
CONTINUOUS
10
57.2261
20
-71.9032
11
57.3114
21
-71.9485
0
LINE
8
BLACK
6
CONTINUOUS
10
57.3114
20
-71.9485
11
57.4039
21
-71.9765
0
LINE
8
BLACK
6
CONTINUOUS
10
57.4039
20
-71.9765
11
57.5002
21
-71.9859
0
LINE
8
BLACK
6
CONTINUOUS
10
57.5002
20
-71.9859
11
70.5
21
-71.995
0
LINE
8
BLACK
6
CONTINUOUS
10
70.5
20
-71.995
11
70.5032
21
-71.995
0
LINE
8
BLACK
6
CONTINUOUS
10
70.5032
20
-71.995
11
70.5995
21
-71.9849
0
LINE
8
BLACK
6
CONTINUOUS
10
70.5995
20
-71.9849
11
70.6918
21
-71.9563
0
LINE
8
BLACK
6
CONTINUOUS
10
70.6918
20
-71.9563
11
70.7768
21
-71.9104
0
LINE
8
BLACK
6
CONTINUOUS
10
70.7768
20
-71.9104
11
70.8512
21
-71.8488
0
LINE
8
BLACK
6
CONTINUOUS
10
70.8512
20
-71.8488
11
70.9123
21
-71.7739
0
LINE
8
BLACK
6
CONTINUOUS
10
70.9123
20
-71.7739
11
70.9576
21
-71.6886
0
LINE
8
BLACK
6
CONTINUOUS
10
70.9576
20
-71.6886
11
70.9855
21
-71.5961
0
LINE
8
BLACK
6
CONTINUOUS
10
70.9855
20
-71.5961
11
70.995
21
-71.4997
0
LINE
8
BLACK
6
CONTINUOUS
10
70.995
20
-71.4997
11
70.995
21
-58.5
0
LINE
8
BLACK
6
CONTINUOUS
10
70.995
20
-58.5
11
70.995
21
-58.4968
0
LINE
8
BLACK
6
CONTINUOUS
10
70.995
20
-58.4968
11
70.9849
21
-58.4005
0
LINE
8
BLACK
6
CONTINUOUS
10
70.9849
20
-58.4005
11
70.9563
21
-58.3082
0
LINE
8
BLACK
6
CONTINUOUS
10
70.9563
20
-58.3082
11
70.9104
21
-58.2232
0
LINE
8
BLACK
6
CONTINUOUS
10
70.9104
20
-58.2232
11
70.8488
21
-58.1488
0
LINE
8
BLACK
6
CONTINUOUS
10
70.8488
20
-58.1488
11
70.7739
21
-58.0877
0
LINE
8
BLACK
6
CONTINUOUS
10
70.7739
20
-58.0877
11
70.6886
21
-58.0424
0
LINE
8
BLACK
6
CONTINUOUS
10
70.6886
20
-58.0424
11
70.5961
21
-58.0145
0
LINE
8
BLACK
6
CONTINUOUS
10
70.5961
20
-58.0145
11
70.4998
21
-58.005
0
LINE
8
BLACK
6
CONTINUOUS
10
70.4998
20
-58.005
11
57.5
21
-58.005
0
LINE
8
BLACK
6
CONTINUOUS
10
108.596
20
-70.4266
11
108.595
21
-70.4267
0
LINE
8
BLACK
6
CONTINUOUS
10
108.595
20
-70.4267
11
108.595
21
-70.4268
0
LINE
8
BLACK
6
CONTINUOUS
10
108.595
20
-70.4268
11
108.498
21
-70.437
0
LINE
8
BLACK
6
CONTINUOUS
10
108.498
20
-70.437
11
108.498
21
-70.437
0
LINE
8
BLACK
6
CONTINUOUS
10
108.498
20
-70.437
11
108.498
21
-70.437
0
LINE
8
BLACK
6
CONTINUOUS
10
108.498
20
-70.437
11
108.498
21
-70.437
0
LINE
8
BLACK
6
CONTINUOUS
10
108.498
20
-70.437
11
108.494
21
-70.437
0
LINE
8
BLACK
6
CONTINUOUS
10
108.494
20
-70.437
11
108.494
21
-70.437
0
LINE
8
BLACK
6
CONTINUOUS
10
108.494
20
-70.437
11
108.494
21
-70.437
0
LINE
8
BLACK
6
CONTINUOUS
10
108.494
20
-70.437
11
95.4938
21
-70.4279
0
LINE
8
BLACK
6
CONTINUOUS
10
95.4938
20
-70.4279
11
95.4935
21
-70.4279
0
LINE
8
BLACK
6
CONTINUOUS
10
95.4935
20
-70.4279
11
95.4935
21
-70.4279
0
LINE
8
BLACK
6
CONTINUOUS
10
95.4935
20
-70.4279
11
95.3964
21
-70.4184
0
LINE
8
BLACK
6
CONTINUOUS
10
95.3964
20
-70.4184
11
95.3963
21
-70.4184
0
LINE
8
BLACK
6
CONTINUOUS
10
95.3963
20
-70.4184
11
95.3958
21
-70.4183
0
LINE
8
BLACK
6
CONTINUOUS
10
95.3958
20
-70.4183
11
95.3954
21
-70.4182
0
LINE
8
BLACK
6
CONTINUOUS
10
95.3954
20
-70.4182
11
95.3954
21
-70.4182
0
LINE
8
BLACK
6
CONTINUOUS
10
95.3954
20
-70.4182
11
95.3954
21
-70.4182
0
LINE
8
BLACK
6
CONTINUOUS
10
95.3954
20
-70.4182
11
95.3954
21
-70.4182
0
LINE
8
BLACK
6
CONTINUOUS
10
95.3954
20
-70.4182
11
95.302
21
-70.39
0
LINE
8
BLACK
6
CONTINUOUS
10
95.302
20
-70.39
11
95.302
21
-70.39
0
LINE
8
BLACK
6
CONTINUOUS
10
95.302
20
-70.39
11
95.302
21
-70.39
0
LINE
8
BLACK
6
CONTINUOUS
10
95.302
20
-70.39
11
95.302
21
-70.39
0
LINE
8
BLACK
6
CONTINUOUS
10
95.302
20
-70.39
11
95.3015
21
-70.3898
0
LINE
8
BLACK
6
CONTINUOUS
10
95.3015
20
-70.3898
11
95.3011
21
-70.3896
0
LINE
8
BLACK
6
CONTINUOUS
10
95.3011
20
-70.3896
11
95.3011
21
-70.3896
0
LINE
8
BLACK
6
CONTINUOUS
10
95.3011
20
-70.3896
11
95.3011
21
-70.3896
0
LINE
8
BLACK
6
CONTINUOUS
10
95.3011
20
-70.3896
11
95.3011
21
-70.3896
0
LINE
8
BLACK
6
CONTINUOUS
10
95.3011
20
-70.3896
11
95.215
21
-70.3438
0
LINE
8
BLACK
6
CONTINUOUS
10
95.215
20
-70.3438
11
95.215
21
-70.3438
0
LINE
8
BLACK
6
CONTINUOUS
10
95.215
20
-70.3438
11
95.2149
21
-70.3438
0
LINE
8
BLACK
6
CONTINUOUS
10
95.2149
20
-70.3438
11
95.2149
21
-70.3438
0
LINE
8
BLACK
6
CONTINUOUS
10
95.2149
20
-70.3438
11
95.2145
21
-70.3435
0
LINE
8
BLACK
6
CONTINUOUS
10
95.2145
20
-70.3435
11
95.2141
21
-70.3433
0
LINE
8
BLACK
6
CONTINUOUS
10
95.2141
20
-70.3433
11
95.1385
21
-70.2816
0
LINE
8
BLACK
6
CONTINUOUS
10
95.1385
20
-70.2816
11
95.1385
21
-70.2815
0
LINE
8
BLACK
6
CONTINUOUS
10
95.1385
20
-70.2815
11
95.1381
21
-70.2812
0
LINE
8
BLACK
6
CONTINUOUS
10
95.1381
20
-70.2812
11
95.1378
21
-70.2809
0
LINE
8
BLACK
6
CONTINUOUS
10
95.1378
20
-70.2809
11
95.0756
21
-70.2057
0
LINE
8
BLACK
6
CONTINUOUS
10
95.0756
20
-70.2057
11
95.0756
21
-70.2057
0
LINE
8
BLACK
6
CONTINUOUS
10
95.0756
20
-70.2057
11
95.0753
21
-70.2053
0
LINE
8
BLACK
6
CONTINUOUS
10
95.0753
20
-70.2053
11
95.0751
21
-70.2049
0
LINE
8
BLACK
6
CONTINUOUS
10
95.0751
20
-70.2049
11
95.0287
21
-70.1191
0
LINE
8
BLACK
6
CONTINUOUS
10
95.0287
20
-70.1191
11
95.0286
21
-70.119
0
LINE
8
BLACK
6
CONTINUOUS
10
95.0286
20
-70.119
11
95.0284
21
-70.1185
0
LINE
8
BLACK
6
CONTINUOUS
10
95.0284
20
-70.1185
11
95.0283
21
-70.1182
0
LINE
8
BLACK
6
CONTINUOUS
10
95.0283
20
-70.1182
11
95.0283
21
-70.1181
0
LINE
8
BLACK
6
CONTINUOUS
10
95.0283
20
-70.1181
11
95.0283
21
-70.1181
0
LINE
8
BLACK
6
CONTINUOUS
10
95.0283
20
-70.1181
11
95.0283
21
-70.1181
0
LINE
8
BLACK
6
CONTINUOUS
10
95.0283
20
-70.1181
11
94.9994
21
-70.0249
0
LINE
8
BLACK
6
CONTINUOUS
10
94.9994
20
-70.0249
11
94.9994
21
-70.0249
0
LINE
8
BLACK
6
CONTINUOUS
10
94.9994
20
-70.0249
11
94.9993
21
-70.0244
0
LINE
8
BLACK
6
CONTINUOUS
10
94.9993
20
-70.0244
11
94.9992
21
-70.024
0
LINE
8
BLACK
6
CONTINUOUS
10
94.9992
20
-70.024
11
94.989
21
-69.9269
0
LINE
8
BLACK
6
CONTINUOUS
10
94.989
20
-69.9269
11
94.989
21
-69.9269
0
LINE
8
BLACK
6
CONTINUOUS
10
94.989
20
-69.9269
11
94.989
21
-69.9266
0
LINE
8
BLACK
6
CONTINUOUS
10
94.989
20
-69.9266
11
94.989
21
-69.9264
0
LINE
8
BLACK
6
CONTINUOUS
10
94.989
20
-69.9264
11
94.989
21
-69.9229
0
LINE
8
BLACK
6
CONTINUOUS
10
94.989
20
-69.9229
11
94.989
21
-69.9229
0
LINE
8
BLACK
6
CONTINUOUS
10
94.989
20
-69.9229
11
94.989
21
-69.9229
0
LINE
8
BLACK
6
CONTINUOUS
10
94.989
20
-69.9229
11
94.989
21
-56.9318
0
LINE
8
BLACK
6
CONTINUOUS
10
94.989
20
-56.9318
11
94.989
21
-56.9315
0
LINE
8
BLACK
6
CONTINUOUS
10
94.989
20
-56.9315
11
94.9985
21
-56.8344
0
LINE
8
BLACK
6
CONTINUOUS
10
94.9985
20
-56.8344
11
94.9985
21
-56.8343
0
LINE
8
BLACK
6
CONTINUOUS
10
94.9985
20
-56.8343
11
94.9987
21
-56.8338
0
LINE
8
BLACK
6
CONTINUOUS
10
94.9987
20
-56.8338
11
94.9987
21
-56.8334
0
LINE
8
BLACK
6
CONTINUOUS
10
94.9987
20
-56.8334
11
95.0269
21
-56.74
0
LINE
8
BLACK
6
CONTINUOUS
10
95.0269
20
-56.74
11
95.0269
21
-56.74
0
LINE
8
BLACK
6
CONTINUOUS
10
95.0269
20
-56.74
11
95.0269
21
-56.74
0
LINE
8
BLACK
6
CONTINUOUS
10
95.0269
20
-56.74
11
95.027
21
-56.74
0
LINE
8
BLACK
6
CONTINUOUS
10
95.027
20
-56.74
11
95.0271
21
-56.7395
0
LINE
8
BLACK
6
CONTINUOUS
10
95.0271
20
-56.7395
11
95.0273
21
-56.7391
0
LINE
8
BLACK
6
CONTINUOUS
10
95.0273
20
-56.7391
11
95.0731
21
-56.653
0
LINE
8
BLACK
6
CONTINUOUS
10
95.0731
20
-56.653
11
95.0731
21
-56.653
0
LINE
8
BLACK
6
CONTINUOUS
10
95.0731
20
-56.653
11
95.0731
21
-56.6529
0
LINE
8
BLACK
6
CONTINUOUS
10
95.0731
20
-56.6529
11
95.0732
21
-56.6529
0
LINE
8
BLACK
6
CONTINUOUS
10
95.0732
20
-56.6529
11
95.0734
21
-56.6525
0
LINE
8
BLACK
6
CONTINUOUS
10
95.0734
20
-56.6525
11
95.0737
21
-56.6521
0
LINE
8
BLACK
6
CONTINUOUS
10
95.0737
20
-56.6521
11
95.1353
21
-56.5765
0
LINE
8
BLACK
6
CONTINUOUS
10
95.1353
20
-56.5765
11
95.1354
21
-56.5765
0
LINE
8
BLACK
6
CONTINUOUS
10
95.1354
20
-56.5765
11
95.1357
21
-56.5761
0
LINE
8
BLACK
6
CONTINUOUS
10
95.1357
20
-56.5761
11
95.136
21
-56.5758
0
LINE
8
BLACK
6
CONTINUOUS
10
95.136
20
-56.5758
11
95.2112
21
-56.5136
0
LINE
8
BLACK
6
CONTINUOUS
10
95.2112
20
-56.5136
11
95.2113
21
-56.5136
0
LINE
8
BLACK
6
CONTINUOUS
10
95.2113
20
-56.5136
11
95.2116
21
-56.5133
0
LINE
8
BLACK
6
CONTINUOUS
10
95.2116
20
-56.5133
11
95.212
21
-56.5131
0
LINE
8
BLACK
6
CONTINUOUS
10
95.212
20
-56.5131
11
95.2979
21
-56.4667
0
LINE
8
BLACK
6
CONTINUOUS
10
95.2979
20
-56.4667
11
95.2979
21
-56.4666
0
LINE
8
BLACK
6
CONTINUOUS
10
95.2979
20
-56.4666
11
95.2984
21
-56.4665
0
LINE
8
BLACK
6
CONTINUOUS
10
95.2984
20
-56.4665
11
95.2988
21
-56.4663
0
LINE
8
BLACK
6
CONTINUOUS
10
95.2988
20
-56.4663
11
95.392
21
-56.4374
0
LINE
8
BLACK
6
CONTINUOUS
10
95.392
20
-56.4374
11
95.392
21
-56.4374
0
LINE
8
BLACK
6
CONTINUOUS
10
95.392
20
-56.4374
11
95.392
21
-56.4374
0
LINE
8
BLACK
6
CONTINUOUS
10
95.392
20
-56.4374
11
95.392
21
-56.4374
0
LINE
8
BLACK
6
CONTINUOUS
10
95.392
20
-56.4374
11
95.3925
21
-56.4373
0
LINE
8
BLACK
6
CONTINUOUS
10
95.3925
20
-56.4373
11
95.3929
21
-56.4372
0
LINE
8
BLACK
6
CONTINUOUS
10
95.3929
20
-56.4372
11
95.49
21
-56.427
0
LINE
8
BLACK
6
CONTINUOUS
10
95.49
20
-56.427
11
95.4901
21
-56.427
0
LINE
8
BLACK
6
CONTINUOUS
10
95.4901
20
-56.427
11
95.4903
21
-56.427
0
LINE
8
BLACK
6
CONTINUOUS
10
95.4903
20
-56.427
11
95.4905
21
-56.427
0
LINE
8
BLACK
6
CONTINUOUS
10
95.4905
20
-56.427
11
95.4937
21
-56.427
0
LINE
8
BLACK
6
CONTINUOUS
10
95.4937
20
-56.427
11
95.4938
21
-56.427
0
LINE
8
BLACK
6
CONTINUOUS
10
95.4938
20
-56.427
11
108.494
21
-56.427
0
LINE
8
BLACK
6
CONTINUOUS
10
108.494
20
-56.427
11
108.494
21
-56.427
0
LINE
8
BLACK
6
CONTINUOUS
10
108.494
20
-56.427
11
108.494
21
-56.427
0
LINE
8
BLACK
6
CONTINUOUS
10
108.494
20
-56.427
11
108.592
21
-56.4365
0
LINE
8
BLACK
6
CONTINUOUS
10
108.592
20
-56.4365
11
108.592
21
-56.4365
0
LINE
8
BLACK
6
CONTINUOUS
10
108.592
20
-56.4365
11
108.592
21
-56.4367
0
LINE
8
BLACK
6
CONTINUOUS
10
108.592
20
-56.4367
11
108.593
21
-56.4367
0
LINE
8
BLACK
6
CONTINUOUS
10
108.593
20
-56.4367
11
108.593
21
-56.4368
0
LINE
8
BLACK
6
CONTINUOUS
10
108.593
20
-56.4368
11
108.593
21
-56.4368
0
LINE
8
BLACK
6
CONTINUOUS
10
108.593
20
-56.4368
11
108.593
21
-56.4368
0
LINE
8
BLACK
6
CONTINUOUS
10
108.593
20
-56.4368
11
108.686
21
-56.4649
0
LINE
8
BLACK
6
CONTINUOUS
10
108.686
20
-56.4649
11
108.686
21
-56.4649
0
LINE
8
BLACK
6
CONTINUOUS
10
108.686
20
-56.4649
11
108.686
21
-56.4649
0
LINE
8
BLACK
6
CONTINUOUS
10
108.686
20
-56.4649
11
108.686
21
-56.465
0
LINE
8
BLACK
6
CONTINUOUS
10
108.686
20
-56.465
11
108.686
21
-56.4651
0
LINE
8
BLACK
6
CONTINUOUS
10
108.686
20
-56.4651
11
108.687
21
-56.4653
0
LINE
8
BLACK
6
CONTINUOUS
10
108.687
20
-56.4653
11
108.687
21
-56.4653
0
LINE
8
BLACK
6
CONTINUOUS
10
108.687
20
-56.4653
11
108.687
21
-56.4653
0
LINE
8
BLACK
6
CONTINUOUS
10
108.687
20
-56.4653
11
108.687
21
-56.4653
0
LINE
8
BLACK
6
CONTINUOUS
10
108.687
20
-56.4653
11
108.773
21
-56.5111
0
LINE
8
BLACK
6
CONTINUOUS
10
108.773
20
-56.5111
11
108.773
21
-56.5111
0
LINE
8
BLACK
6
CONTINUOUS
10
108.773
20
-56.5111
11
108.773
21
-56.5111
0
LINE
8
BLACK
6
CONTINUOUS
10
108.773
20
-56.5111
11
108.773
21
-56.5112
0
LINE
8
BLACK
6
CONTINUOUS
10
108.773
20
-56.5112
11
108.773
21
-56.5114
0
LINE
8
BLACK
6
CONTINUOUS
10
108.773
20
-56.5114
11
108.774
21
-56.5117
0
LINE
8
BLACK
6
CONTINUOUS
10
108.774
20
-56.5117
11
108.849
21
-56.5733
0
LINE
8
BLACK
6
CONTINUOUS
10
108.849
20
-56.5733
11
108.85
21
-56.5734
0
LINE
8
BLACK
6
CONTINUOUS
10
108.85
20
-56.5734
11
108.85
21
-56.5737
0
LINE
8
BLACK
6
CONTINUOUS
10
108.85
20
-56.5737
11
108.85
21
-56.574
0
LINE
8
BLACK
6
CONTINUOUS
10
108.85
20
-56.574
11
108.912
21
-56.6492
0
LINE
8
BLACK
6
CONTINUOUS
10
108.912
20
-56.6492
11
108.912
21
-56.6493
0
LINE
8
BLACK
6
CONTINUOUS
10
108.912
20
-56.6493
11
108.913
21
-56.6496
0
LINE
8
BLACK
6
CONTINUOUS
10
108.913
20
-56.6496
11
108.913
21
-56.65
0
LINE
8
BLACK
6
CONTINUOUS
10
108.913
20
-56.65
11
108.959
21
-56.7359
0
LINE
8
BLACK
6
CONTINUOUS
10
108.959
20
-56.7359
11
108.959
21
-56.7359
0
LINE
8
BLACK
6
CONTINUOUS
10
108.959
20
-56.7359
11
108.96
21
-56.7364
0
LINE
8
BLACK
6
CONTINUOUS
10
108.96
20
-56.7364
11
108.96
21
-56.7368
0
LINE
8
BLACK
6
CONTINUOUS
10
108.96
20
-56.7368
11
108.989
21
-56.83
0
LINE
8
BLACK
6
CONTINUOUS
10
108.989
20
-56.83
11
108.989
21
-56.83
0
LINE
8
BLACK
6
CONTINUOUS
10
108.989
20
-56.83
11
108.989
21
-56.83
0
LINE
8
BLACK
6
CONTINUOUS
10
108.989
20
-56.83
11
108.989
21
-56.83
0
LINE
8
BLACK
6
CONTINUOUS
10
108.989
20
-56.83
11
108.989
21
-56.8305
0
LINE
8
BLACK
6
CONTINUOUS
10
108.989
20
-56.8305
11
108.989
21
-56.8309
0
LINE
8
BLACK
6
CONTINUOUS
10
108.989
20
-56.8309
11
108.999
21
-56.928
0
LINE
8
BLACK
6
CONTINUOUS
10
108.999
20
-56.928
11
108.999
21
-56.9281
0
LINE
8
BLACK
6
CONTINUOUS
10
108.999
20
-56.9281
11
108.999
21
-56.9283
0
LINE
8
BLACK
6
CONTINUOUS
10
108.999
20
-56.9283
11
108.999
21
-56.9285
0
LINE
8
BLACK
6
CONTINUOUS
10
108.999
20
-56.9285
11
108.999
21
-56.9317
0
LINE
8
BLACK
6
CONTINUOUS
10
108.999
20
-56.9317
11
108.999
21
-56.9318
0
LINE
8
BLACK
6
CONTINUOUS
10
108.999
20
-56.9318
11
108.999
21
-69.9322
0
LINE
8
BLACK
6
CONTINUOUS
10
108.999
20
-69.9322
11
108.999
21
-69.9325
0
LINE
8
BLACK
6
CONTINUOUS
10
108.999
20
-69.9325
11
108.999
21
-69.9325
0
LINE
8
BLACK
6
CONTINUOUS
10
108.999
20
-69.9325
11
108.989
21
-70.0296
0
LINE
8
BLACK
6
CONTINUOUS
10
108.989
20
-70.0296
11
108.989
21
-70.0297
0
LINE
8
BLACK
6
CONTINUOUS
10
108.989
20
-70.0297
11
108.989
21
-70.0302
0
LINE
8
BLACK
6
CONTINUOUS
10
108.989
20
-70.0302
11
108.989
21
-70.0306
0
LINE
8
BLACK
6
CONTINUOUS
10
108.989
20
-70.0306
11
108.961
21
-70.124
0
LINE
8
BLACK
6
CONTINUOUS
10
108.961
20
-70.124
11
108.961
21
-70.124
0
LINE
8
BLACK
6
CONTINUOUS
10
108.961
20
-70.124
11
108.961
21
-70.124
0
LINE
8
BLACK
6
CONTINUOUS
10
108.961
20
-70.124
11
108.961
21
-70.124
0
LINE
8
BLACK
6
CONTINUOUS
10
108.961
20
-70.124
11
108.961
21
-70.1245
0
LINE
8
BLACK
6
CONTINUOUS
10
108.961
20
-70.1245
11
108.961
21
-70.1249
0
LINE
8
BLACK
6
CONTINUOUS
10
108.961
20
-70.1249
11
108.915
21
-70.211
0
LINE
8
BLACK
6
CONTINUOUS
10
108.915
20
-70.211
11
108.915
21
-70.211
0
LINE
8
BLACK
6
CONTINUOUS
10
108.915
20
-70.211
11
108.915
21
-70.2111
0
LINE
8
BLACK
6
CONTINUOUS
10
108.915
20
-70.2111
11
108.915
21
-70.2111
0
LINE
8
BLACK
6
CONTINUOUS
10
108.915
20
-70.2111
11
108.915
21
-70.2115
0
LINE
8
BLACK
6
CONTINUOUS
10
108.915
20
-70.2115
11
108.914
21
-70.2119
0
LINE
8
BLACK
6
CONTINUOUS
10
108.914
20
-70.2119
11
108.853
21
-70.2875
0
LINE
8
BLACK
6
CONTINUOUS
10
108.853
20
-70.2875
11
108.853
21
-70.2875
0
LINE
8
BLACK
6
CONTINUOUS
10
108.853
20
-70.2875
11
108.852
21
-70.2879
0
LINE
8
BLACK
6
CONTINUOUS
10
108.852
20
-70.2879
11
108.852
21
-70.2882
0
LINE
8
BLACK
6
CONTINUOUS
10
108.852
20
-70.2882
11
108.777
21
-70.3504
0
LINE
8
BLACK
6
CONTINUOUS
10
108.777
20
-70.3504
11
108.777
21
-70.3504
0
LINE
8
BLACK
6
CONTINUOUS
10
108.777
20
-70.3504
11
108.776
21
-70.3507
0
LINE
8
BLACK
6
CONTINUOUS
10
108.776
20
-70.3507
11
108.776
21
-70.3509
0
LINE
8
BLACK
6
CONTINUOUS
10
108.776
20
-70.3509
11
108.69
21
-70.3973
0
LINE
8
BLACK
6
CONTINUOUS
10
108.69
20
-70.3973
11
108.69
21
-70.3974
0
LINE
8
BLACK
6
CONTINUOUS
10
108.69
20
-70.3974
11
108.69
21
-70.3976
0
LINE
8
BLACK
6
CONTINUOUS
10
108.69
20
-70.3976
11
108.689
21
-70.3977
0
LINE
8
BLACK
6
CONTINUOUS
10
108.689
20
-70.3977
11
108.689
21
-70.3977
0
LINE
8
BLACK
6
CONTINUOUS
10
108.689
20
-70.3977
11
108.689
21
-70.3977
0
LINE
8
BLACK
6
CONTINUOUS
10
108.689
20
-70.3977
11
108.689
21
-70.3977
0
LINE
8
BLACK
6
CONTINUOUS
10
108.689
20
-70.3977
11
108.596
21
-70.4266
0
LINE
8
BLACK
6
CONTINUOUS
10
108.596
20
-70.4266
11
108.596
21
-70.4266
0
LINE
8
BLACK
6
CONTINUOUS
10
108.596
20
-70.4266
11
108.596
21
-70.4266
0
LINE
8
BLACK
6
CONTINUOUS
10
95.494
20
-56.437
11
95.4908
21
-56.437
0
LINE
8
BLACK
6
CONTINUOUS
10
95.4908
20
-56.437
11
95.3945
21
-56.4471
0
LINE
8
BLACK
6
CONTINUOUS
10
95.3945
20
-56.4471
11
95.3022
21
-56.4757
0
LINE
8
BLACK
6
CONTINUOUS
10
95.3022
20
-56.4757
11
95.2172
21
-56.5216
0
LINE
8
BLACK
6
CONTINUOUS
10
95.2172
20
-56.5216
11
95.1428
21
-56.5832
0
LINE
8
BLACK
6
CONTINUOUS
10
95.1428
20
-56.5832
11
95.0817
21
-56.6581
0
LINE
8
BLACK
6
CONTINUOUS
10
95.0817
20
-56.6581
11
95.0364
21
-56.7434
0
LINE
8
BLACK
6
CONTINUOUS
10
95.0364
20
-56.7434
11
95.0085
21
-56.8359
0
LINE
8
BLACK
6
CONTINUOUS
10
95.0085
20
-56.8359
11
94.999
21
-56.9322
0
LINE
8
BLACK
6
CONTINUOUS
10
94.999
20
-56.9322
11
94.999
21
-69.9229
0
LINE
8
BLACK
6
CONTINUOUS
10
94.999
20
-69.9229
11
94.999
21
-69.9261
0
LINE
8
BLACK
6
CONTINUOUS
10
94.999
20
-69.9261
11
95.0091
21
-70.0225
0
LINE
8
BLACK
6
CONTINUOUS
10
95.0091
20
-70.0225
11
95.0377
21
-70.1147
0
LINE
8
BLACK
6
CONTINUOUS
10
95.0377
20
-70.1147
11
95.0836
21
-70.1997
0
LINE
8
BLACK
6
CONTINUOUS
10
95.0836
20
-70.1997
11
95.1452
21
-70.2741
0
LINE
8
BLACK
6
CONTINUOUS
10
95.1452
20
-70.2741
11
95.2201
21
-70.3352
0
LINE
8
BLACK
6
CONTINUOUS
10
95.2201
20
-70.3352
11
95.3054
21
-70.3805
0
LINE
8
BLACK
6
CONTINUOUS
10
95.3054
20
-70.3805
11
95.3979
21
-70.4085
0
LINE
8
BLACK
6
CONTINUOUS
10
95.3979
20
-70.4085
11
95.4942
21
-70.4179
0
LINE
8
BLACK
6
CONTINUOUS
10
95.4942
20
-70.4179
11
108.494
21
-70.427
0
LINE
8
BLACK
6
CONTINUOUS
10
108.494
20
-70.427
11
108.497
21
-70.427
0
LINE
8
BLACK
6
CONTINUOUS
10
108.497
20
-70.427
11
108.594
21
-70.4169
0
LINE
8
BLACK
6
CONTINUOUS
10
108.594
20
-70.4169
11
108.686
21
-70.3883
0
LINE
8
BLACK
6
CONTINUOUS
10
108.686
20
-70.3883
11
108.771
21
-70.3424
0
LINE
8
BLACK
6
CONTINUOUS
10
108.771
20
-70.3424
11
108.845
21
-70.2808
0
LINE
8
BLACK
6
CONTINUOUS
10
108.845
20
-70.2808
11
108.906
21
-70.2059
0
LINE
8
BLACK
6
CONTINUOUS
10
108.906
20
-70.2059
11
108.952
21
-70.1206
0
LINE
8
BLACK
6
CONTINUOUS
10
108.952
20
-70.1206
11
108.98
21
-70.0281
0
LINE
8
BLACK
6
CONTINUOUS
10
108.98
20
-70.0281
11
108.989
21
-69.9317
0
LINE
8
BLACK
6
CONTINUOUS
10
108.989
20
-69.9317
11
108.989
21
-56.932
0
LINE
8
BLACK
6
CONTINUOUS
10
108.989
20
-56.932
11
108.989
21
-56.9288
0
LINE
8
BLACK
6
CONTINUOUS
10
108.989
20
-56.9288
11
108.979
21
-56.8325
0
LINE
8
BLACK
6
CONTINUOUS
10
108.979
20
-56.8325
11
108.95
21
-56.7402
0
LINE
8
BLACK
6
CONTINUOUS
10
108.95
20
-56.7402
11
108.904
21
-56.6552
0
LINE
8
BLACK
6
CONTINUOUS
10
108.904
20
-56.6552
11
108.843
21
-56.5808
0
LINE
8
BLACK
6
CONTINUOUS
10
108.843
20
-56.5808
11
108.768
21
-56.5197
0
LINE
8
BLACK
6
CONTINUOUS
10
108.768
20
-56.5197
11
108.683
21
-56.4744
0
LINE
8
BLACK
6
CONTINUOUS
10
108.683
20
-56.4744
11
108.59
21
-56.4465
0
LINE
8
BLACK
6
CONTINUOUS
10
108.59
20
-56.4465
11
108.494
21
-56.437
0
LINE
8
BLACK
6
CONTINUOUS
10
108.494
20
-56.437
11
95.494
21
-56.437
0
LINE
8
BLACK
6
CONTINUOUS
10
89.602
20
-65.8546
11
89.6015
21
-65.8547
0
LINE
8
BLACK
6
CONTINUOUS
10
89.6015
20
-65.8547
11
89.6011
21
-65.8548
0
LINE
8
BLACK
6
CONTINUOUS
10
89.6011
20
-65.8548
11
89.504
21
-65.865
0
LINE
8
BLACK
6
CONTINUOUS
10
89.504
20
-65.865
11
89.5039
21
-65.865
0
LINE
8
BLACK
6
CONTINUOUS
10
89.5039
20
-65.865
11
89.5037
21
-65.865
0
LINE
8
BLACK
6
CONTINUOUS
10
89.5037
20
-65.865
11
89.5035
21
-65.865
0
LINE
8
BLACK
6
CONTINUOUS
10
89.5035
20
-65.865
11
89.5002
21
-65.865
0
LINE
8
BLACK
6
CONTINUOUS
10
89.5002
20
-65.865
11
89.5002
21
-65.865
0
LINE
8
BLACK
6
CONTINUOUS
10
89.5002
20
-65.865
11
89.4999
21
-65.865
0
LINE
8
BLACK
6
CONTINUOUS
10
89.4999
20
-65.865
11
76.4998
21
-65.8559
0
LINE
8
BLACK
6
CONTINUOUS
10
76.4998
20
-65.8559
11
76.4995
21
-65.8559
0
LINE
8
BLACK
6
CONTINUOUS
10
76.4995
20
-65.8559
11
76.4995
21
-65.8559
0
LINE
8
BLACK
6
CONTINUOUS
10
76.4995
20
-65.8559
11
76.4024
21
-65.8464
0
LINE
8
BLACK
6
CONTINUOUS
10
76.4024
20
-65.8464
11
76.4023
21
-65.8464
0
LINE
8
BLACK
6
CONTINUOUS
10
76.4023
20
-65.8464
11
76.4018
21
-65.8463
0
LINE
8
BLACK
6
CONTINUOUS
10
76.4018
20
-65.8463
11
76.4014
21
-65.8462
0
LINE
8
BLACK
6
CONTINUOUS
10
76.4014
20
-65.8462
11
76.4014
21
-65.8462
0
LINE
8
BLACK
6
CONTINUOUS
10
76.4014
20
-65.8462
11
76.4014
21
-65.8462
0
LINE
8
BLACK
6
CONTINUOUS
10
76.4014
20
-65.8462
11
76.4014
21
-65.8462
0
LINE
8
BLACK
6
CONTINUOUS
10
76.4014
20
-65.8462
11
76.308
21
-65.818
0
LINE
8
BLACK
6
CONTINUOUS
10
76.308
20
-65.818
11
76.308
21
-65.818
0
LINE
8
BLACK
6
CONTINUOUS
10
76.308
20
-65.818
11
76.308
21
-65.818
0
LINE
8
BLACK
6
CONTINUOUS
10
76.308
20
-65.818
11
76.308
21
-65.818
0
LINE
8
BLACK
6
CONTINUOUS
10
76.308
20
-65.818
11
76.3075
21
-65.8178
0
LINE
8
BLACK
6
CONTINUOUS
10
76.3075
20
-65.8178
11
76.3071
21
-65.8176
0
LINE
8
BLACK
6
CONTINUOUS
10
76.3071
20
-65.8176
11
76.3071
21
-65.8176
0
LINE
8
BLACK
6
CONTINUOUS
10
76.3071
20
-65.8176
11
76.3071
21
-65.8176
0
LINE
8
BLACK
6
CONTINUOUS
10
76.3071
20
-65.8176
11
76.3071
21
-65.8176
0
LINE
8
BLACK
6
CONTINUOUS
10
76.3071
20
-65.8176
11
76.221
21
-65.7718
0
LINE
8
BLACK
6
CONTINUOUS
10
76.221
20
-65.7718
11
76.221
21
-65.7718
0
LINE
8
BLACK
6
CONTINUOUS
10
76.221
20
-65.7718
11
76.2209
21
-65.7718
0
LINE
8
BLACK
6
CONTINUOUS
10
76.2209
20
-65.7718
11
76.2209
21
-65.7718
0
LINE
8
BLACK
6
CONTINUOUS
10
76.2209
20
-65.7718
11
76.2205
21
-65.7715
0
LINE
8
BLACK
6
CONTINUOUS
10
76.2205
20
-65.7715
11
76.2201
21
-65.7713
0
LINE
8
BLACK
6
CONTINUOUS
10
76.2201
20
-65.7713
11
76.1445
21
-65.7096
0
LINE
8
BLACK
6
CONTINUOUS
10
76.1445
20
-65.7096
11
76.1445
21
-65.7095
0
LINE
8
BLACK
6
CONTINUOUS
10
76.1445
20
-65.7095
11
76.1441
21
-65.7092
0
LINE
8
BLACK
6
CONTINUOUS
10
76.1441
20
-65.7092
11
76.1438
21
-65.7089
0
LINE
8
BLACK
6
CONTINUOUS
10
76.1438
20
-65.7089
11
76.0816
21
-65.6337
0
LINE
8
BLACK
6
CONTINUOUS
10
76.0816
20
-65.6337
11
76.0816
21
-65.6337
0
LINE
8
BLACK
6
CONTINUOUS
10
76.0816
20
-65.6337
11
76.0813
21
-65.6333
0
LINE
8
BLACK
6
CONTINUOUS
10
76.0813
20
-65.6333
11
76.0811
21
-65.6329
0
LINE
8
BLACK
6
CONTINUOUS
10
76.0811
20
-65.6329
11
76.0347
21
-65.5471
0
LINE
8
BLACK
6
CONTINUOUS
10
76.0347
20
-65.5471
11
76.0346
21
-65.547
0
LINE
8
BLACK
6
CONTINUOUS
10
76.0346
20
-65.547
11
76.0344
21
-65.5465
0
LINE
8
BLACK
6
CONTINUOUS
10
76.0344
20
-65.5465
11
76.0343
21
-65.5462
0
LINE
8
BLACK
6
CONTINUOUS
10
76.0343
20
-65.5462
11
76.0343
21
-65.5461
0
LINE
8
BLACK
6
CONTINUOUS
10
76.0343
20
-65.5461
11
76.0343
21
-65.5461
0
LINE
8
BLACK
6
CONTINUOUS
10
76.0343
20
-65.5461
11
76.0343
21
-65.5461
0
LINE
8
BLACK
6
CONTINUOUS
10
76.0343
20
-65.5461
11
76.0054
21
-65.4529
0
LINE
8
BLACK
6
CONTINUOUS
10
76.0054
20
-65.4529
11
76.0054
21
-65.4529
0
LINE
8
BLACK
6
CONTINUOUS
10
76.0054
20
-65.4529
11
76.0053
21
-65.4524
0
LINE
8
BLACK
6
CONTINUOUS
10
76.0053
20
-65.4524
11
76.0052
21
-65.452
0
LINE
8
BLACK
6
CONTINUOUS
10
76.0052
20
-65.452
11
75.995
21
-65.3549
0
LINE
8
BLACK
6
CONTINUOUS
10
75.995
20
-65.3549
11
75.995
21
-65.3549
0
LINE
8
BLACK
6
CONTINUOUS
10
75.995
20
-65.3549
11
75.995
21
-65.3546
0
LINE
8
BLACK
6
CONTINUOUS
10
75.995
20
-65.3546
11
75.995
21
-65.3544
0
LINE
8
BLACK
6
CONTINUOUS
10
75.995
20
-65.3544
11
75.995
21
-65.3509
0
LINE
8
BLACK
6
CONTINUOUS
10
75.995
20
-65.3509
11
75.995
21
-65.3509
0
LINE
8
BLACK
6
CONTINUOUS
10
75.995
20
-65.3509
11
75.995
21
-65.3509
0
LINE
8
BLACK
6
CONTINUOUS
10
75.995
20
-65.3509
11
75.995
21
-52.3598
0
LINE
8
BLACK
6
CONTINUOUS
10
75.995
20
-52.3598
11
75.995
21
-52.3595
0
LINE
8
BLACK
6
CONTINUOUS
10
75.995
20
-52.3595
11
76.0045
21
-52.2624
0
LINE
8
BLACK
6
CONTINUOUS
10
76.0045
20
-52.2624
11
76.0045
21
-52.2623
0
LINE
8
BLACK
6
CONTINUOUS
10
76.0045
20
-52.2623
11
76.0047
21
-52.2618
0
LINE
8
BLACK
6
CONTINUOUS
10
76.0047
20
-52.2618
11
76.0047
21
-52.2614
0
LINE
8
BLACK
6
CONTINUOUS
10
76.0047
20
-52.2614
11
76.0329
21
-52.168
0
LINE
8
BLACK
6
CONTINUOUS
10
76.0329
20
-52.168
11
76.0329
21
-52.168
0
LINE
8
BLACK
6
CONTINUOUS
10
76.0329
20
-52.168
11
76.0329
21
-52.168
0
LINE
8
BLACK
6
CONTINUOUS
10
76.0329
20
-52.168
11
76.033
21
-52.168
0
LINE
8
BLACK
6
CONTINUOUS
10
76.033
20
-52.168
11
76.0331
21
-52.1675
0
LINE
8
BLACK
6
CONTINUOUS
10
76.0331
20
-52.1675
11
76.0333
21
-52.1671
0
LINE
8
BLACK
6
CONTINUOUS
10
76.0333
20
-52.1671
11
76.0791
21
-52.081
0
LINE
8
BLACK
6
CONTINUOUS
10
76.0791
20
-52.081
11
76.0791
21
-52.081
0
LINE
8
BLACK
6
CONTINUOUS
10
76.0791
20
-52.081
11
76.0791
21
-52.0809
0
LINE
8
BLACK
6
CONTINUOUS
10
76.0791
20
-52.0809
11
76.0792
21
-52.0809
0
LINE
8
BLACK
6
CONTINUOUS
10
76.0792
20
-52.0809
11
76.0794
21
-52.0805
0
LINE
8
BLACK
6
CONTINUOUS
10
76.0794
20
-52.0805
11
76.0797
21
-52.0801
0
LINE
8
BLACK
6
CONTINUOUS
10
76.0797
20
-52.0801
11
76.1413
21
-52.0045
0
LINE
8
BLACK
6
CONTINUOUS
10
76.1413
20
-52.0045
11
76.1414
21
-52.0045
0
LINE
8
BLACK
6
CONTINUOUS
10
76.1414
20
-52.0045
11
76.1417
21
-52.0041
0
LINE
8
BLACK
6
CONTINUOUS
10
76.1417
20
-52.0041
11
76.142
21
-52.0038
0
LINE
8
BLACK
6
CONTINUOUS
10
76.142
20
-52.0038
11
76.2172
21
-51.9416
0
LINE
8
BLACK
6
CONTINUOUS
10
76.2172
20
-51.9416
11
76.2173
21
-51.9416
0
LINE
8
BLACK
6
CONTINUOUS
10
76.2173
20
-51.9416
11
76.2176
21
-51.9413
0
LINE
8
BLACK
6
CONTINUOUS
10
76.2176
20
-51.9413
11
76.218
21
-51.9411
0
LINE
8
BLACK
6
CONTINUOUS
10
76.218
20
-51.9411
11
76.3039
21
-51.8947
0
LINE
8
BLACK
6
CONTINUOUS
10
76.3039
20
-51.8947
11
76.3039
21
-51.8946
0
LINE
8
BLACK
6
CONTINUOUS
10
76.3039
20
-51.8946
11
76.3044
21
-51.8945
0
LINE
8
BLACK
6
CONTINUOUS
10
76.3044
20
-51.8945
11
76.3048
21
-51.8943
0
LINE
8
BLACK
6
CONTINUOUS
10
76.3048
20
-51.8943
11
76.398
21
-51.8654
0
LINE
8
BLACK
6
CONTINUOUS
10
76.398
20
-51.8654
11
76.398
21
-51.8654
0
LINE
8
BLACK
6
CONTINUOUS
10
76.398
20
-51.8654
11
76.398
21
-51.8654
0
LINE
8
BLACK
6
CONTINUOUS
10
76.398
20
-51.8654
11
76.398
21
-51.8654
0
LINE
8
BLACK
6
CONTINUOUS
10
76.398
20
-51.8654
11
76.3985
21
-51.8653
0
LINE
8
BLACK
6
CONTINUOUS
10
76.3985
20
-51.8653
11
76.3989
21
-51.8652
0
LINE
8
BLACK
6
CONTINUOUS
10
76.3989
20
-51.8652
11
76.496
21
-51.855
0
LINE
8
BLACK
6
CONTINUOUS
10
76.496
20
-51.855
11
76.4961
21
-51.855
0
LINE
8
BLACK
6
CONTINUOUS
10
76.4961
20
-51.855
11
76.4963
21
-51.855
0
LINE
8
BLACK
6
CONTINUOUS
10
76.4963
20
-51.855
11
76.4965
21
-51.855
0
LINE
8
BLACK
6
CONTINUOUS
10
76.4965
20
-51.855
11
76.4997
21
-51.855
0
LINE
8
BLACK
6
CONTINUOUS
10
76.4997
20
-51.855
11
76.4998
21
-51.855
0
LINE
8
BLACK
6
CONTINUOUS
10
76.4998
20
-51.855
11
89.5002
21
-51.855
0
LINE
8
BLACK
6
CONTINUOUS
10
89.5002
20
-51.855
11
89.5005
21
-51.855
0
LINE
8
BLACK
6
CONTINUOUS
10
89.5005
20
-51.855
11
89.5005
21
-51.855
0
LINE
8
BLACK
6
CONTINUOUS
10
89.5005
20
-51.855
11
89.5976
21
-51.8645
0
LINE
8
BLACK
6
CONTINUOUS
10
89.5976
20
-51.8645
11
89.5977
21
-51.8645
0
LINE
8
BLACK
6
CONTINUOUS
10
89.5977
20
-51.8645
11
89.5982
21
-51.8647
0
LINE
8
BLACK
6
CONTINUOUS
10
89.5982
20
-51.8647
11
89.5986
21
-51.8647
0
LINE
8
BLACK
6
CONTINUOUS
10
89.5986
20
-51.8647
11
89.5986
21
-51.8648
0
LINE
8
BLACK
6
CONTINUOUS
10
89.5986
20
-51.8648
11
89.5986
21
-51.8648
0
LINE
8
BLACK
6
CONTINUOUS
10
89.5986
20
-51.8648
11
89.5986
21
-51.8648
0
LINE
8
BLACK
6
CONTINUOUS
10
89.5986
20
-51.8648
11
89.692
21
-51.8929
0
LINE
8
BLACK
6
CONTINUOUS
10
89.692
20
-51.8929
11
89.692
21
-51.8929
0
LINE
8
BLACK
6
CONTINUOUS
10
89.692
20
-51.8929
11
89.692
21
-51.8929
0
LINE
8
BLACK
6
CONTINUOUS
10
89.692
20
-51.8929
11
89.692
21
-51.893
0
LINE
8
BLACK
6
CONTINUOUS
10
89.692
20
-51.893
11
89.6925
21
-51.8931
0
LINE
8
BLACK
6
CONTINUOUS
10
89.6925
20
-51.8931
11
89.6929
21
-51.8933
0
LINE
8
BLACK
6
CONTINUOUS
10
89.6929
20
-51.8933
11
89.6929
21
-51.8933
0
LINE
8
BLACK
6
CONTINUOUS
10
89.6929
20
-51.8933
11
89.6929
21
-51.8933
0
LINE
8
BLACK
6
CONTINUOUS
10
89.6929
20
-51.8933
11
89.6929
21
-51.8933
0
LINE
8
BLACK
6
CONTINUOUS
10
89.6929
20
-51.8933
11
89.779
21
-51.9391
0
LINE
8
BLACK
6
CONTINUOUS
10
89.779
20
-51.9391
11
89.779
21
-51.9391
0
LINE
8
BLACK
6
CONTINUOUS
10
89.779
20
-51.9391
11
89.7791
21
-51.9391
0
LINE
8
BLACK
6
CONTINUOUS
10
89.7791
20
-51.9391
11
89.7791
21
-51.9392
0
LINE
8
BLACK
6
CONTINUOUS
10
89.7791
20
-51.9392
11
89.7795
21
-51.9394
0
LINE
8
BLACK
6
CONTINUOUS
10
89.7795
20
-51.9394
11
89.7799
21
-51.9397
0
LINE
8
BLACK
6
CONTINUOUS
10
89.7799
20
-51.9397
11
89.8555
21
-52.0013
0
LINE
8
BLACK
6
CONTINUOUS
10
89.8555
20
-52.0013
11
89.8555
21
-52.0014
0
LINE
8
BLACK
6
CONTINUOUS
10
89.8555
20
-52.0014
11
89.8559
21
-52.0017
0
LINE
8
BLACK
6
CONTINUOUS
10
89.8559
20
-52.0017
11
89.8562
21
-52.002
0
LINE
8
BLACK
6
CONTINUOUS
10
89.8562
20
-52.002
11
89.9184
21
-52.0772
0
LINE
8
BLACK
6
CONTINUOUS
10
89.9184
20
-52.0772
11
89.9184
21
-52.0773
0
LINE
8
BLACK
6
CONTINUOUS
10
89.9184
20
-52.0773
11
89.9187
21
-52.0776
0
LINE
8
BLACK
6
CONTINUOUS
10
89.9187
20
-52.0776
11
89.9189
21
-52.078
0
LINE
8
BLACK
6
CONTINUOUS
10
89.9189
20
-52.078
11
89.9653
21
-52.1639
0
LINE
8
BLACK
6
CONTINUOUS
10
89.9653
20
-52.1639
11
89.9654
21
-52.1639
0
LINE
8
BLACK
6
CONTINUOUS
10
89.9654
20
-52.1639
11
89.9655
21
-52.1644
0
LINE
8
BLACK
6
CONTINUOUS
10
89.9655
20
-52.1644
11
89.9657
21
-52.1648
0
LINE
8
BLACK
6
CONTINUOUS
10
89.9657
20
-52.1648
11
89.9946
21
-52.258
0
LINE
8
BLACK
6
CONTINUOUS
10
89.9946
20
-52.258
11
89.9946
21
-52.258
0
LINE
8
BLACK
6
CONTINUOUS
10
89.9946
20
-52.258
11
89.9946
21
-52.258
0
LINE
8
BLACK
6
CONTINUOUS
10
89.9946
20
-52.258
11
89.9946
21
-52.258
0
LINE
8
BLACK
6
CONTINUOUS
10
89.9946
20
-52.258
11
89.9947
21
-52.2585
0
LINE
8
BLACK
6
CONTINUOUS
10
89.9947
20
-52.2585
11
89.9948
21
-52.2589
0
LINE
8
BLACK
6
CONTINUOUS
10
89.9948
20
-52.2589
11
90.005
21
-52.356
0
LINE
8
BLACK
6
CONTINUOUS
10
90.005
20
-52.356
11
90.005
21
-52.3561
0
LINE
8
BLACK
6
CONTINUOUS
10
90.005
20
-52.3561
11
90.005
21
-52.3563
0
LINE
8
BLACK
6
CONTINUOUS
10
90.005
20
-52.3563
11
90.005
21
-52.3565
0
LINE
8
BLACK
6
CONTINUOUS
10
90.005
20
-52.3565
11
90.005
21
-52.3597
0
LINE
8
BLACK
6
CONTINUOUS
10
90.005
20
-52.3597
11
90.005
21
-52.3598
0
LINE
8
BLACK
6
CONTINUOUS
10
90.005
20
-52.3598
11
90.005
21
-65.3602
0
LINE
8
BLACK
6
CONTINUOUS
10
90.005
20
-65.3602
11
90.005
21
-65.3605
0
LINE
8
BLACK
6
CONTINUOUS
10
90.005
20
-65.3605
11
90.005
21
-65.3605
0
LINE
8
BLACK
6
CONTINUOUS
10
90.005
20
-65.3605
11
89.9955
21
-65.4576
0
LINE
8
BLACK
6
CONTINUOUS
10
89.9955
20
-65.4576
11
89.9954
21
-65.4577
0
LINE
8
BLACK
6
CONTINUOUS
10
89.9954
20
-65.4577
11
89.9953
21
-65.4582
0
LINE
8
BLACK
6
CONTINUOUS
10
89.9953
20
-65.4582
11
89.9953
21
-65.4586
0
LINE
8
BLACK
6
CONTINUOUS
10
89.9953
20
-65.4586
11
89.9671
21
-65.552
0
LINE
8
BLACK
6
CONTINUOUS
10
89.9671
20
-65.552
11
89.9671
21
-65.552
0
LINE
8
BLACK
6
CONTINUOUS
10
89.9671
20
-65.552
11
89.9671
21
-65.552
0
LINE
8
BLACK
6
CONTINUOUS
10
89.9671
20
-65.552
11
89.967
21
-65.552
0
LINE
8
BLACK
6
CONTINUOUS
10
89.967
20
-65.552
11
89.9669
21
-65.5525
0
LINE
8
BLACK
6
CONTINUOUS
10
89.9669
20
-65.5525
11
89.9667
21
-65.5529
0
LINE
8
BLACK
6
CONTINUOUS
10
89.9667
20
-65.5529
11
89.9209
21
-65.639
0
LINE
8
BLACK
6
CONTINUOUS
10
89.9209
20
-65.639
11
89.9209
21
-65.639
0
LINE
8
BLACK
6
CONTINUOUS
10
89.9209
20
-65.639
11
89.9209
21
-65.6391
0
LINE
8
BLACK
6
CONTINUOUS
10
89.9209
20
-65.6391
11
89.9208
21
-65.6391
0
LINE
8
BLACK
6
CONTINUOUS
10
89.9208
20
-65.6391
11
89.9206
21
-65.6395
0
LINE
8
BLACK
6
CONTINUOUS
10
89.9206
20
-65.6395
11
89.9203
21
-65.6399
0
LINE
8
BLACK
6
CONTINUOUS
10
89.9203
20
-65.6399
11
89.8587
21
-65.7155
0
LINE
8
BLACK
6
CONTINUOUS
10
89.8587
20
-65.7155
11
89.8586
21
-65.7155
0
LINE
8
BLACK
6
CONTINUOUS
10
89.8586
20
-65.7155
11
89.8583
21
-65.7159
0
LINE
8
BLACK
6
CONTINUOUS
10
89.8583
20
-65.7159
11
89.858
21
-65.7162
0
LINE
8
BLACK
6
CONTINUOUS
10
89.858
20
-65.7162
11
89.7828
21
-65.7784
0
LINE
8
BLACK
6
CONTINUOUS
10
89.7828
20
-65.7784
11
89.7827
21
-65.7784
0
LINE
8
BLACK
6
CONTINUOUS
10
89.7827
20
-65.7784
11
89.7823
21
-65.7787
0
LINE
8
BLACK
6
CONTINUOUS
10
89.7823
20
-65.7787
11
89.782
21
-65.7789
0
LINE
8
BLACK
6
CONTINUOUS
10
89.782
20
-65.7789
11
89.6961
21
-65.8253
0
LINE
8
BLACK
6
CONTINUOUS
10
89.6961
20
-65.8253
11
89.6961
21
-65.8254
0
LINE
8
BLACK
6
CONTINUOUS
10
89.6961
20
-65.8254
11
89.6956
21
-65.8256
0
LINE
8
BLACK
6
CONTINUOUS
10
89.6956
20
-65.8256
11
89.6952
21
-65.8257
0
LINE
8
BLACK
6
CONTINUOUS
10
89.6952
20
-65.8257
11
89.6952
21
-65.8257
0
LINE
8
BLACK
6
CONTINUOUS
10
89.6952
20
-65.8257
11
89.6952
21
-65.8257
0
LINE
8
BLACK
6
CONTINUOUS
10
89.6952
20
-65.8257
11
89.6952
21
-65.8257
0
LINE
8
BLACK
6
CONTINUOUS
10
89.6952
20
-65.8257
11
89.602
21
-65.8546
0
LINE
8
BLACK
6
CONTINUOUS
10
89.602
20
-65.8546
11
89.602
21
-65.8546
0
LINE
8
BLACK
6
CONTINUOUS
10
89.602
20
-65.8546
11
89.602
21
-65.8546
0
LINE
8
BLACK
6
CONTINUOUS
10
76.5
20
-51.865
11
76.4968
21
-51.865
0
LINE
8
BLACK
6
CONTINUOUS
10
76.4968
20
-51.865
11
76.4005
21
-51.8751
0
LINE
8
BLACK
6
CONTINUOUS
10
76.4005
20
-51.8751
11
76.3082
21
-51.9037
0
LINE
8
BLACK
6
CONTINUOUS
10
76.3082
20
-51.9037
11
76.2232
21
-51.9496
0
LINE
8
BLACK
6
CONTINUOUS
10
76.2232
20
-51.9496
11
76.1488
21
-52.0112
0
LINE
8
BLACK
6
CONTINUOUS
10
76.1488
20
-52.0112
11
76.0877
21
-52.0861
0
LINE
8
BLACK
6
CONTINUOUS
10
76.0877
20
-52.0861
11
76.0424
21
-52.1714
0
LINE
8
BLACK
6
CONTINUOUS
10
76.0424
20
-52.1714
11
76.0145
21
-52.2639
0
LINE
8
BLACK
6
CONTINUOUS
10
76.0145
20
-52.2639
11
76.005
21
-52.3602
0
LINE
8
BLACK
6
CONTINUOUS
10
76.005
20
-52.3602
11
76.005
21
-65.3509
0
LINE
8
BLACK
6
CONTINUOUS
10
76.005
20
-65.3509
11
76.005
21
-65.3541
0
LINE
8
BLACK
6
CONTINUOUS
10
76.005
20
-65.3541
11
76.0151
21
-65.4505
0
LINE
8
BLACK
6
CONTINUOUS
10
76.0151
20
-65.4505
11
76.0437
21
-65.5427
0
LINE
8
BLACK
6
CONTINUOUS
10
76.0437
20
-65.5427
11
76.0896
21
-65.6277
0
LINE
8
BLACK
6
CONTINUOUS
10
76.0896
20
-65.6277
11
76.1512
21
-65.7021
0
LINE
8
BLACK
6
CONTINUOUS
10
76.1512
20
-65.7021
11
76.2261
21
-65.7632
0
LINE
8
BLACK
6
CONTINUOUS
10
76.2261
20
-65.7632
11
76.3114
21
-65.8085
0
LINE
8
BLACK
6
CONTINUOUS
10
76.3114
20
-65.8085
11
76.4039
21
-65.8365
0
LINE
8
BLACK
6
CONTINUOUS
10
76.4039
20
-65.8365
11
76.5002
21
-65.8459
0
LINE
8
BLACK
6
CONTINUOUS
10
76.5002
20
-65.8459
11
89.5
21
-65.855
0
LINE
8
BLACK
6
CONTINUOUS
10
89.5
20
-65.855
11
89.5032
21
-65.855
0
LINE
8
BLACK
6
CONTINUOUS
10
89.5032
20
-65.855
11
89.5995
21
-65.8449
0
LINE
8
BLACK
6
CONTINUOUS
10
89.5995
20
-65.8449
11
89.6918
21
-65.8163
0
LINE
8
BLACK
6
CONTINUOUS
10
89.6918
20
-65.8163
11
89.7768
21
-65.7704
0
LINE
8
BLACK
6
CONTINUOUS
10
89.7768
20
-65.7704
11
89.8512
21
-65.7088
0
LINE
8
BLACK
6
CONTINUOUS
10
89.8512
20
-65.7088
11
89.9123
21
-65.6339
0
LINE
8
BLACK
6
CONTINUOUS
10
89.9123
20
-65.6339
11
89.9576
21
-65.5486
0
LINE
8
BLACK
6
CONTINUOUS
10
89.9576
20
-65.5486
11
89.9855
21
-65.4561
0
LINE
8
BLACK
6
CONTINUOUS
10
89.9855
20
-65.4561
11
89.995
21
-65.3597
0
LINE
8
BLACK
6
CONTINUOUS
10
89.995
20
-65.3597
11
89.995
21
-52.36
0
LINE
8
BLACK
6
CONTINUOUS
10
89.995
20
-52.36
11
89.995
21
-52.3568
0
LINE
8
BLACK
6
CONTINUOUS
10
89.995
20
-52.3568
11
89.9849
21
-52.2605
0
LINE
8
BLACK
6
CONTINUOUS
10
89.9849
20
-52.2605
11
89.9563
21
-52.1682
0
LINE
8
BLACK
6
CONTINUOUS
10
89.9563
20
-52.1682
11
89.9104
21
-52.0832
0
LINE
8
BLACK
6
CONTINUOUS
10
89.9104
20
-52.0832
11
89.8488
21
-52.0088
0
LINE
8
BLACK
6
CONTINUOUS
10
89.8488
20
-52.0088
11
89.7739
21
-51.9477
0
LINE
8
BLACK
6
CONTINUOUS
10
89.7739
20
-51.9477
11
89.6886
21
-51.9024
0
LINE
8
BLACK
6
CONTINUOUS
10
89.6886
20
-51.9024
11
89.5961
21
-51.8745
0
LINE
8
BLACK
6
CONTINUOUS
10
89.5961
20
-51.8745
11
89.4998
21
-51.865
0
LINE
8
BLACK
6
CONTINUOUS
10
89.4998
20
-51.865
11
76.5
21
-51.865
0
LINE
8
BLACK
6
CONTINUOUS
10
138.111
20
-124.894
11
138.195
21
-124.689
0
LINE
8
BLACK
6
CONTINUOUS
10
138.195
20
-124.689
11
138.318
21
-124.505
0
LINE
8
BLACK
6
CONTINUOUS
10
138.318
20
-124.505
11
138.475
21
-124.348
0
LINE
8
BLACK
6
CONTINUOUS
10
138.475
20
-124.348
11
138.659
21
-124.225
0
LINE
8
BLACK
6
CONTINUOUS
10
138.659
20
-124.225
11
138.864
21
-124.141
0
LINE
8
BLACK
6
CONTINUOUS
10
138.864
20
-124.141
11
139.081
21
-124.097
0
LINE
8
BLACK
6
CONTINUOUS
10
139.081
20
-124.097
11
139.303
21
-124.097
0
LINE
8
BLACK
6
CONTINUOUS
10
139.303
20
-124.097
11
139.52
21
-124.141
0
LINE
8
BLACK
6
CONTINUOUS
10
139.52
20
-124.141
11
139.725
21
-124.225
0
LINE
8
BLACK
6
CONTINUOUS
10
139.725
20
-124.225
11
139.909
21
-124.348
0
LINE
8
BLACK
6
CONTINUOUS
10
139.909
20
-124.348
11
140.066
21
-124.505
0
LINE
8
BLACK
6
CONTINUOUS
10
140.066
20
-124.505
11
140.189
21
-124.689
0
LINE
8
BLACK
6
CONTINUOUS
10
140.189
20
-124.689
11
140.273
21
-124.894
0
LINE
8
BLACK
6
CONTINUOUS
10
140.273
20
-124.894
11
140.317
21
-125.111
0
LINE
8
BLACK
6
CONTINUOUS
10
140.317
20
-125.111
11
140.317
21
-125.333
0
LINE
8
BLACK
6
CONTINUOUS
10
140.317
20
-125.333
11
140.273
21
-125.55
0
LINE
8
BLACK
6
CONTINUOUS
10
140.273
20
-125.55
11
140.189
21
-125.755
0
LINE
8
BLACK
6
CONTINUOUS
10
140.189
20
-125.755
11
140.066
21
-125.939
0
LINE
8
BLACK
6
CONTINUOUS
10
140.066
20
-125.939
11
139.909
21
-126.096
0
LINE
8
BLACK
6
CONTINUOUS
10
139.909
20
-126.096
11
139.725
21
-126.219
0
LINE
8
BLACK
6
CONTINUOUS
10
139.725
20
-126.219
11
139.52
21
-126.303
0
LINE
8
BLACK
6
CONTINUOUS
10
139.52
20
-126.303
11
139.303
21
-126.347
0
LINE
8
BLACK
6
CONTINUOUS
10
139.303
20
-126.347
11
139.081
21
-126.347
0
LINE
8
BLACK
6
CONTINUOUS
10
139.081
20
-126.347
11
138.864
21
-126.303
0
LINE
8
BLACK
6
CONTINUOUS
10
138.864
20
-126.303
11
138.659
21
-126.219
0
LINE
8
BLACK
6
CONTINUOUS
10
138.659
20
-126.219
11
138.475
21
-126.096
0
LINE
8
BLACK
6
CONTINUOUS
10
138.475
20
-126.096
11
138.318
21
-125.939
0
LINE
8
BLACK
6
CONTINUOUS
10
138.318
20
-125.939
11
138.195
21
-125.755
0
LINE
8
BLACK
6
CONTINUOUS
10
138.195
20
-125.755
11
138.111
21
-125.55
0
LINE
8
BLACK
6
CONTINUOUS
10
138.111
20
-125.55
11
138.067
21
-125.333
0
LINE
8
BLACK
6
CONTINUOUS
10
138.067
20
-125.333
11
138.067
21
-125.111
0
LINE
8
BLACK
6
CONTINUOUS
10
138.067
20
-125.111
11
138.111
21
-124.894
0
LINE
8
BLACK
6
CONTINUOUS
10
138.178
20
-125.53
11
138.257
21
-125.722
0
LINE
8
BLACK
6
CONTINUOUS
10
138.257
20
-125.722
11
138.373
21
-125.895
0
LINE
8
BLACK
6
CONTINUOUS
10
138.373
20
-125.895
11
138.519
21
-126.041
0
LINE
8
BLACK
6
CONTINUOUS
10
138.519
20
-126.041
11
138.692
21
-126.157
0
LINE
8
BLACK
6
CONTINUOUS
10
138.692
20
-126.157
11
138.884
21
-126.236
0
LINE
8
BLACK
6
CONTINUOUS
10
138.884
20
-126.236
11
139.088
21
-126.277
0
LINE
8
BLACK
6
CONTINUOUS
10
139.088
20
-126.277
11
139.296
21
-126.277
0
LINE
8
BLACK
6
CONTINUOUS
10
139.296
20
-126.277
11
139.5
21
-126.236
0
LINE
8
BLACK
6
CONTINUOUS
10
139.5
20
-126.236
11
139.692
21
-126.157
0
LINE
8
BLACK
6
CONTINUOUS
10
139.692
20
-126.157
11
139.865
21
-126.041
0
LINE
8
BLACK
6
CONTINUOUS
10
139.865
20
-126.041
11
140.011
21
-125.895
0
LINE
8
BLACK
6
CONTINUOUS
10
140.011
20
-125.895
11
140.127
21
-125.722
0
LINE
8
BLACK
6
CONTINUOUS
10
140.127
20
-125.722
11
140.206
21
-125.53
0
LINE
8
BLACK
6
CONTINUOUS
10
140.206
20
-125.53
11
140.247
21
-125.326
0
LINE
8
BLACK
6
CONTINUOUS
10
140.247
20
-125.326
11
140.247
21
-125.118
0
LINE
8
BLACK
6
CONTINUOUS
10
140.247
20
-125.118
11
140.206
21
-124.914
0
LINE
8
BLACK
6
CONTINUOUS
10
140.206
20
-124.914
11
140.127
21
-124.722
0
LINE
8
BLACK
6
CONTINUOUS
10
140.127
20
-124.722
11
140.011
21
-124.549
0
LINE
8
BLACK
6
CONTINUOUS
10
140.011
20
-124.549
11
139.865
21
-124.403
0
LINE
8
BLACK
6
CONTINUOUS
10
139.865
20
-124.403
11
139.692
21
-124.287
0
LINE
8
BLACK
6
CONTINUOUS
10
139.692
20
-124.287
11
139.5
21
-124.208
0
LINE
8
BLACK
6
CONTINUOUS
10
139.5
20
-124.208
11
139.296
21
-124.167
0
LINE
8
BLACK
6
CONTINUOUS
10
139.296
20
-124.167
11
139.088
21
-124.167
0
LINE
8
BLACK
6
CONTINUOUS
10
139.088
20
-124.167
11
138.884
21
-124.208
0
LINE
8
BLACK
6
CONTINUOUS
10
138.884
20
-124.208
11
138.692
21
-124.287
0
LINE
8
BLACK
6
CONTINUOUS
10
138.692
20
-124.287
11
138.519
21
-124.403
0
LINE
8
BLACK
6
CONTINUOUS
10
138.519
20
-124.403
11
138.373
21
-124.549
0
LINE
8
BLACK
6
CONTINUOUS
10
138.373
20
-124.549
11
138.257
21
-124.722
0
LINE
8
BLACK
6
CONTINUOUS
10
138.257
20
-124.722
11
138.178
21
-124.914
0
LINE
8
BLACK
6
CONTINUOUS
10
138.178
20
-124.914
11
138.137
21
-125.118
0
LINE
8
BLACK
6
CONTINUOUS
10
138.137
20
-125.118
11
138.137
21
-125.326
0
LINE
8
BLACK
6
CONTINUOUS
10
138.137
20
-125.326
11
138.178
21
-125.53
0
LINE
8
BLACK
6
CONTINUOUS
10
56.3226
20
-113.21
11
56.4074
21
-113.005
0
LINE
8
BLACK
6
CONTINUOUS
10
56.4074
20
-113.005
11
56.5304
21
-112.821
0
LINE
8
BLACK
6
CONTINUOUS
10
56.5304
20
-112.821
11
56.6871
21
-112.664
0
LINE
8
BLACK
6
CONTINUOUS
10
56.6871
20
-112.664
11
56.8713
21
-112.541
0
LINE
8
BLACK
6
CONTINUOUS
10
56.8713
20
-112.541
11
57.076
21
-112.457
0
LINE
8
BLACK
6
CONTINUOUS
10
57.076
20
-112.457
11
57.2932
21
-112.413
0
LINE
8
BLACK
6
CONTINUOUS
10
57.2932
20
-112.413
11
57.5148
21
-112.413
0
LINE
8
BLACK
6
CONTINUOUS
10
57.5148
20
-112.413
11
57.732
21
-112.457
0
LINE
8
BLACK
6
CONTINUOUS
10
57.732
20
-112.457
11
57.9367
21
-112.541
0
LINE
8
BLACK
6
CONTINUOUS
10
57.9367
20
-112.541
11
58.1209
21
-112.664
0
LINE
8
BLACK
6
CONTINUOUS
10
58.1209
20
-112.664
11
58.2776
21
-112.821
0
LINE
8
BLACK
6
CONTINUOUS
10
58.2776
20
-112.821
11
58.4006
21
-113.005
0
LINE
8
BLACK
6
CONTINUOUS
10
58.4006
20
-113.005
11
58.4854
21
-113.21
0
LINE
8
BLACK
6
CONTINUOUS
10
58.4854
20
-113.21
11
58.5286
21
-113.427
0
LINE
8
BLACK
6
CONTINUOUS
10
58.5286
20
-113.427
11
58.5286
21
-113.649
0
LINE
8
BLACK
6
CONTINUOUS
10
58.5286
20
-113.649
11
58.4854
21
-113.866
0
LINE
8
BLACK
6
CONTINUOUS
10
58.4854
20
-113.866
11
58.4006
21
-114.071
0
LINE
8
BLACK
6
CONTINUOUS
10
58.4006
20
-114.071
11
58.2776
21
-114.255
0
LINE
8
BLACK
6
CONTINUOUS
10
58.2776
20
-114.255
11
58.1209
21
-114.412
0
LINE
8
BLACK
6
CONTINUOUS
10
58.1209
20
-114.412
11
57.9367
21
-114.535
0
LINE
8
BLACK
6
CONTINUOUS
10
57.9367
20
-114.535
11
57.732
21
-114.619
0
LINE
8
BLACK
6
CONTINUOUS
10
57.732
20
-114.619
11
57.5148
21
-114.663
0
LINE
8
BLACK
6
CONTINUOUS
10
57.5148
20
-114.663
11
57.2932
21
-114.663
0
LINE
8
BLACK
6
CONTINUOUS
10
57.2932
20
-114.663
11
57.076
21
-114.619
0
LINE
8
BLACK
6
CONTINUOUS
10
57.076
20
-114.619
11
56.8713
21
-114.535
0
LINE
8
BLACK
6
CONTINUOUS
10
56.8713
20
-114.535
11
56.6871
21
-114.412
0
LINE
8
BLACK
6
CONTINUOUS
10
56.6871
20
-114.412
11
56.5304
21
-114.255
0
LINE
8
BLACK
6
CONTINUOUS
10
56.5304
20
-114.255
11
56.4074
21
-114.071
0
LINE
8
BLACK
6
CONTINUOUS
10
56.4074
20
-114.071
11
56.3226
21
-113.866
0
LINE
8
BLACK
6
CONTINUOUS
10
56.3226
20
-113.866
11
56.2794
21
-113.649
0
LINE
8
BLACK
6
CONTINUOUS
10
56.2794
20
-113.649
11
56.2794
21
-113.427
0
LINE
8
BLACK
6
CONTINUOUS
10
56.2794
20
-113.427
11
56.3226
21
-113.21
0
LINE
8
BLACK
6
CONTINUOUS
10
56.3896
20
-113.846
11
56.4691
21
-114.038
0
LINE
8
BLACK
6
CONTINUOUS
10
56.4691
20
-114.038
11
56.5845
21
-114.211
0
LINE
8
BLACK
6
CONTINUOUS
10
56.5845
20
-114.211
11
56.7315
21
-114.357
0
LINE
8
BLACK
6
CONTINUOUS
10
56.7315
20
-114.357
11
56.9043
21
-114.473
0
LINE
8
BLACK
6
CONTINUOUS
10
56.9043
20
-114.473
11
57.0963
21
-114.552
0
LINE
8
BLACK
6
CONTINUOUS
10
57.0963
20
-114.552
11
57.3001
21
-114.593
0
LINE
8
BLACK
6
CONTINUOUS
10
57.3001
20
-114.593
11
57.5079
21
-114.593
0
LINE
8
BLACK
6
CONTINUOUS
10
57.5079
20
-114.593
11
57.7117
21
-114.552
0
LINE
8
BLACK
6
CONTINUOUS
10
57.7117
20
-114.552
11
57.9037
21
-114.473
0
LINE
8
BLACK
6
CONTINUOUS
10
57.9037
20
-114.473
11
58.0765
21
-114.357
0
LINE
8
BLACK
6
CONTINUOUS
10
58.0765
20
-114.357
11
58.2235
21
-114.211
0
LINE
8
BLACK
6
CONTINUOUS
10
58.2235
20
-114.211
11
58.3389
21
-114.038
0
LINE
8
BLACK
6
CONTINUOUS
10
58.3389
20
-114.038
11
58.4184
21
-113.846
0
LINE
8
BLACK
6
CONTINUOUS
10
58.4184
20
-113.846
11
58.459
21
-113.642
0
LINE
8
BLACK
6
CONTINUOUS
10
58.459
20
-113.642
11
58.459
21
-113.434
0
LINE
8
BLACK
6
CONTINUOUS
10
58.459
20
-113.434
11
58.4184
21
-113.23
0
LINE
8
BLACK
6
CONTINUOUS
10
58.4184
20
-113.23
11
58.3389
21
-113.038
0
LINE
8
BLACK
6
CONTINUOUS
10
58.3389
20
-113.038
11
58.2235
21
-112.865
0
LINE
8
BLACK
6
CONTINUOUS
10
58.2235
20
-112.865
11
58.0765
21
-112.719
0
LINE
8
BLACK
6
CONTINUOUS
10
58.0765
20
-112.719
11
57.9037
21
-112.603
0
LINE
8
BLACK
6
CONTINUOUS
10
57.9037
20
-112.603
11
57.7117
21
-112.524
0
LINE
8
BLACK
6
CONTINUOUS
10
57.7117
20
-112.524
11
57.5079
21
-112.483
0
LINE
8
BLACK
6
CONTINUOUS
10
57.5079
20
-112.483
11
57.3001
21
-112.483
0
LINE
8
BLACK
6
CONTINUOUS
10
57.3001
20
-112.483
11
57.0963
21
-112.524
0
LINE
8
BLACK
6
CONTINUOUS
10
57.0963
20
-112.524
11
56.9043
21
-112.603
0
LINE
8
BLACK
6
CONTINUOUS
10
56.9043
20
-112.603
11
56.7315
21
-112.719
0
LINE
8
BLACK
6
CONTINUOUS
10
56.7315
20
-112.719
11
56.5845
21
-112.865
0
LINE
8
BLACK
6
CONTINUOUS
10
56.5845
20
-112.865
11
56.4691
21
-113.038
0
LINE
8
BLACK
6
CONTINUOUS
10
56.4691
20
-113.038
11
56.3896
21
-113.23
0
LINE
8
BLACK
6
CONTINUOUS
10
56.3896
20
-113.23
11
56.349
21
-113.434
0
LINE
8
BLACK
6
CONTINUOUS
10
56.349
20
-113.434
11
56.349
21
-113.642
0
LINE
8
BLACK
6
CONTINUOUS
10
56.349
20
-113.642
11
56.3896
21
-113.846
0
LINE
8
BLACK
6
CONTINUOUS
10
90.8829
20
-105.568
11
91.0062
21
-105.27
0
LINE
8
BLACK
6
CONTINUOUS
10
91.0062
20
-105.27
11
91.1853
21
-105.002
0
LINE
8
BLACK
6
CONTINUOUS
10
91.1853
20
-105.002
11
91.4131
21
-104.774
0
LINE
8
BLACK
6
CONTINUOUS
10
91.4131
20
-104.774
11
91.6811
21
-104.595
0
LINE
8
BLACK
6
CONTINUOUS
10
91.6811
20
-104.595
11
91.9788
21
-104.472
0
LINE
8
BLACK
6
CONTINUOUS
10
91.9788
20
-104.472
11
92.2949
21
-104.409
0
LINE
8
BLACK
6
CONTINUOUS
10
92.2949
20
-104.409
11
92.6171
21
-104.409
0
LINE
8
BLACK
6
CONTINUOUS
10
92.6171
20
-104.409
11
92.9332
21
-104.472
0
LINE
8
BLACK
6
CONTINUOUS
10
92.9332
20
-104.472
11
93.2309
21
-104.595
0
LINE
8
BLACK
6
CONTINUOUS
10
93.2309
20
-104.595
11
93.4989
21
-104.774
0
LINE
8
BLACK
6
CONTINUOUS
10
93.4989
20
-104.774
11
93.7267
21
-105.002
0
LINE
8
BLACK
6
CONTINUOUS
10
93.7267
20
-105.002
11
93.9058
21
-105.27
0
LINE
8
BLACK
6
CONTINUOUS
10
93.9058
20
-105.27
11
94.0291
21
-105.568
0
LINE
8
BLACK
6
CONTINUOUS
10
94.0291
20
-105.568
11
94.092
21
-105.884
0
LINE
8
BLACK
6
CONTINUOUS
10
94.092
20
-105.884
11
94.092
21
-106.206
0
LINE
8
BLACK
6
CONTINUOUS
10
94.092
20
-106.206
11
94.0291
21
-106.522
0
LINE
8
BLACK
6
CONTINUOUS
10
94.0291
20
-106.522
11
93.9058
21
-106.82
0
LINE
8
BLACK
6
CONTINUOUS
10
93.9058
20
-106.82
11
93.7267
21
-107.088
0
LINE
8
BLACK
6
CONTINUOUS
10
93.7267
20
-107.088
11
93.4989
21
-107.316
0
LINE
8
BLACK
6
CONTINUOUS
10
93.4989
20
-107.316
11
93.2309
21
-107.495
0
LINE
8
BLACK
6
CONTINUOUS
10
93.2309
20
-107.495
11
92.9332
21
-107.618
0
LINE
8
BLACK
6
CONTINUOUS
10
92.9332
20
-107.618
11
92.6171
21
-107.681
0
LINE
8
BLACK
6
CONTINUOUS
10
92.6171
20
-107.681
11
92.2949
21
-107.681
0
LINE
8
BLACK
6
CONTINUOUS
10
92.2949
20
-107.681
11
91.9788
21
-107.618
0
LINE
8
BLACK
6
CONTINUOUS
10
91.9788
20
-107.618
11
91.6811
21
-107.495
0
LINE
8
BLACK
6
CONTINUOUS
10
91.6811
20
-107.495
11
91.4131
21
-107.316
0
LINE
8
BLACK
6
CONTINUOUS
10
91.4131
20
-107.316
11
91.1853
21
-107.088
0
LINE
8
BLACK
6
CONTINUOUS
10
91.1853
20
-107.088
11
91.0062
21
-106.82
0
LINE
8
BLACK
6
CONTINUOUS
10
91.0062
20
-106.82
11
90.8829
21
-106.522
0
LINE
8
BLACK
6
CONTINUOUS
10
90.8829
20
-106.522
11
90.82
21
-106.206
0
LINE
8
BLACK
6
CONTINUOUS
10
90.82
20
-106.206
11
90.82
21
-105.884
0
LINE
8
BLACK
6
CONTINUOUS
10
90.82
20
-105.884
11
90.8829
21
-105.568
0
LINE
8
BLACK
6
CONTINUOUS
10
90.9499
20
-106.502
11
91.068
21
-106.787
0
LINE
8
BLACK
6
CONTINUOUS
10
91.068
20
-106.787
11
91.2394
21
-107.043
0
LINE
8
BLACK
6
CONTINUOUS
10
91.2394
20
-107.043
11
91.4575
21
-107.262
0
LINE
8
BLACK
6
CONTINUOUS
10
91.4575
20
-107.262
11
91.7141
21
-107.433
0
LINE
8
BLACK
6
CONTINUOUS
10
91.7141
20
-107.433
11
91.9991
21
-107.551
0
LINE
8
BLACK
6
CONTINUOUS
10
91.9991
20
-107.551
11
92.3017
21
-107.611
0
LINE
8
BLACK
6
CONTINUOUS
10
92.3017
20
-107.611
11
92.6103
21
-107.611
0
LINE
8
BLACK
6
CONTINUOUS
10
92.6103
20
-107.611
11
92.9129
21
-107.551
0
LINE
8
BLACK
6
CONTINUOUS
10
92.9129
20
-107.551
11
93.1979
21
-107.433
0
LINE
8
BLACK
6
CONTINUOUS
10
93.1979
20
-107.433
11
93.4545
21
-107.262
0
LINE
8
BLACK
6
CONTINUOUS
10
93.4545
20
-107.262
11
93.6726
21
-107.043
0
LINE
8
BLACK
6
CONTINUOUS
10
93.6726
20
-107.043
11
93.844
21
-106.787
0
LINE
8
BLACK
6
CONTINUOUS
10
93.844
20
-106.787
11
93.9621
21
-106.502
0
LINE
8
BLACK
6
CONTINUOUS
10
93.9621
20
-106.502
11
94.0223
21
-106.199
0
LINE
8
BLACK
6
CONTINUOUS
10
94.0223
20
-106.199
11
94.0223
21
-105.891
0
LINE
8
BLACK
6
CONTINUOUS
10
94.0223
20
-105.891
11
93.9621
21
-105.588
0
LINE
8
BLACK
6
CONTINUOUS
10
93.9621
20
-105.588
11
93.844
21
-105.303
0
LINE
8
BLACK
6
CONTINUOUS
10
93.844
20
-105.303
11
93.6726
21
-105.047
0
LINE
8
BLACK
6
CONTINUOUS
10
93.6726
20
-105.047
11
93.4545
21
-104.828
0
LINE
8
BLACK
6
CONTINUOUS
10
93.4545
20
-104.828
11
93.1979
21
-104.657
0
LINE
8
BLACK
6
CONTINUOUS
10
93.1979
20
-104.657
11
92.9129
21
-104.539
0
LINE
8
BLACK
6
CONTINUOUS
10
92.9129
20
-104.539
11
92.6103
21
-104.479
0
LINE
8
BLACK
6
CONTINUOUS
10
92.6103
20
-104.479
11
92.3017
21
-104.479
0
LINE
8
BLACK
6
CONTINUOUS
10
92.3017
20
-104.479
11
91.9991
21
-104.539
0
LINE
8
BLACK
6
CONTINUOUS
10
91.9991
20
-104.539
11
91.7141
21
-104.657
0
LINE
8
BLACK
6
CONTINUOUS
10
91.7141
20
-104.657
11
91.4575
21
-104.828
0
LINE
8
BLACK
6
CONTINUOUS
10
91.4575
20
-104.828
11
91.2394
21
-105.047
0
LINE
8
BLACK
6
CONTINUOUS
10
91.2394
20
-105.047
11
91.068
21
-105.303
0
LINE
8
BLACK
6
CONTINUOUS
10
91.068
20
-105.303
11
90.9499
21
-105.588
0
LINE
8
BLACK
6
CONTINUOUS
10
90.9499
20
-105.588
11
90.8897
21
-105.891
0
LINE
8
BLACK
6
CONTINUOUS
10
90.8897
20
-105.891
11
90.8897
21
-106.199
0
LINE
8
BLACK
6
CONTINUOUS
10
90.8897
20
-106.199
11
90.9499
21
-106.502
0
LINE
8
BLACK
6
CONTINUOUS
10
109.933
20
-86.5178
11
110.056
21
-86.2201
0
LINE
8
BLACK
6
CONTINUOUS
10
110.056
20
-86.2201
11
110.235
21
-85.9521
0
LINE
8
BLACK
6
CONTINUOUS
10
110.235
20
-85.9521
11
110.463
21
-85.7243
0
LINE
8
BLACK
6
CONTINUOUS
10
110.463
20
-85.7243
11
110.731
21
-85.5452
0
LINE
8
BLACK
6
CONTINUOUS
10
110.731
20
-85.5452
11
111.029
21
-85.4219
0
LINE
8
BLACK
6
CONTINUOUS
10
111.029
20
-85.4219
11
111.345
21
-85.359
0
LINE
8
BLACK
6
CONTINUOUS
10
111.345
20
-85.359
11
111.667
21
-85.359
0
LINE
8
BLACK
6
CONTINUOUS
10
111.667
20
-85.359
11
111.983
21
-85.4219
0
LINE
8
BLACK
6
CONTINUOUS
10
111.983
20
-85.4219
11
112.281
21
-85.5452
0
LINE
8
BLACK
6
CONTINUOUS
10
112.281
20
-85.5452
11
112.549
21
-85.7243
0
LINE
8
BLACK
6
CONTINUOUS
10
112.549
20
-85.7243
11
112.777
21
-85.9521
0
LINE
8
BLACK
6
CONTINUOUS
10
112.777
20
-85.9521
11
112.956
21
-86.2201
0
LINE
8
BLACK
6
CONTINUOUS
10
112.956
20
-86.2201
11
113.079
21
-86.5178
0
LINE
8
BLACK
6
CONTINUOUS
10
113.079
20
-86.5178
11
113.142
21
-86.8339
0
LINE
8
BLACK
6
CONTINUOUS
10
113.142
20
-86.8339
11
113.142
21
-87.1561
0
LINE
8
BLACK
6
CONTINUOUS
10
113.142
20
-87.1561
11
113.079
21
-87.4722
0
LINE
8
BLACK
6
CONTINUOUS
10
113.079
20
-87.4722
11
112.956
21
-87.7699
0
LINE
8
BLACK
6
CONTINUOUS
10
112.956
20
-87.7699
11
112.777
21
-88.0379
0
LINE
8
BLACK
6
CONTINUOUS
10
112.777
20
-88.0379
11
112.549
21
-88.2657
0
LINE
8
BLACK
6
CONTINUOUS
10
112.549
20
-88.2657
11
112.281
21
-88.4448
0
LINE
8
BLACK
6
CONTINUOUS
10
112.281
20
-88.4448
11
111.983
21
-88.5681
0
LINE
8
BLACK
6
CONTINUOUS
10
111.983
20
-88.5681
11
111.667
21
-88.631
0
LINE
8
BLACK
6
CONTINUOUS
10
111.667
20
-88.631
11
111.345
21
-88.631
0
LINE
8
BLACK
6
CONTINUOUS
10
111.345
20
-88.631
11
111.029
21
-88.5681
0
LINE
8
BLACK
6
CONTINUOUS
10
111.029
20
-88.5681
11
110.731
21
-88.4448
0
LINE
8
BLACK
6
CONTINUOUS
10
110.731
20
-88.4448
11
110.463
21
-88.2657
0
LINE
8
BLACK
6
CONTINUOUS
10
110.463
20
-88.2657
11
110.235
21
-88.0379
0
LINE
8
BLACK
6
CONTINUOUS
10
110.235
20
-88.0379
11
110.056
21
-87.7699
0
LINE
8
BLACK
6
CONTINUOUS
10
110.056
20
-87.7699
11
109.933
21
-87.4722
0
LINE
8
BLACK
6
CONTINUOUS
10
109.933
20
-87.4722
11
109.87
21
-87.1561
0
LINE
8
BLACK
6
CONTINUOUS
10
109.87
20
-87.1561
11
109.87
21
-86.8339
0
LINE
8
BLACK
6
CONTINUOUS
10
109.87
20
-86.8339
11
109.933
21
-86.5178
0
LINE
8
BLACK
6
CONTINUOUS
10
110
20
-87.4519
11
110.118
21
-87.7369
0
LINE
8
BLACK
6
CONTINUOUS
10
110.118
20
-87.7369
11
110.289
21
-87.9935
0
LINE
8
BLACK
6
CONTINUOUS
10
110.289
20
-87.9935
11
110.508
21
-88.2116
0
LINE
8
BLACK
6
CONTINUOUS
10
110.508
20
-88.2116
11
110.764
21
-88.383
0
LINE
8
BLACK
6
CONTINUOUS
10
110.764
20
-88.383
11
111.049
21
-88.5011
0
LINE
8
BLACK
6
CONTINUOUS
10
111.049
20
-88.5011
11
111.352
21
-88.5613
0
LINE
8
BLACK
6
CONTINUOUS
10
111.352
20
-88.5613
11
111.66
21
-88.5613
0
LINE
8
BLACK
6
CONTINUOUS
10
111.66
20
-88.5613
11
111.963
21
-88.5011
0
LINE
8
BLACK
6
CONTINUOUS
10
111.963
20
-88.5011
11
112.248
21
-88.383
0
LINE
8
BLACK
6
CONTINUOUS
10
112.248
20
-88.383
11
112.504
21
-88.2116
0
LINE
8
BLACK
6
CONTINUOUS
10
112.504
20
-88.2116
11
112.723
21
-87.9935
0
LINE
8
BLACK
6
CONTINUOUS
10
112.723
20
-87.9935
11
112.894
21
-87.7369
0
LINE
8
BLACK
6
CONTINUOUS
10
112.894
20
-87.7369
11
113.012
21
-87.4519
0
LINE
8
BLACK
6
CONTINUOUS
10
113.012
20
-87.4519
11
113.072
21
-87.1493
0
LINE
8
BLACK
6
CONTINUOUS
10
113.072
20
-87.1493
11
113.072
21
-86.8407
0
LINE
8
BLACK
6
CONTINUOUS
10
113.072
20
-86.8407
11
113.012
21
-86.5381
0
LINE
8
BLACK
6
CONTINUOUS
10
113.012
20
-86.5381
11
112.894
21
-86.2531
0
LINE
8
BLACK
6
CONTINUOUS
10
112.894
20
-86.2531
11
112.723
21
-85.9965
0
LINE
8
BLACK
6
CONTINUOUS
10
112.723
20
-85.9965
11
112.504
21
-85.7784
0
LINE
8
BLACK
6
CONTINUOUS
10
112.504
20
-85.7784
11
112.248
21
-85.607
0
LINE
8
BLACK
6
CONTINUOUS
10
112.248
20
-85.607
11
111.963
21
-85.4889
0
LINE
8
BLACK
6
CONTINUOUS
10
111.963
20
-85.4889
11
111.66
21
-85.4287
0
LINE
8
BLACK
6
CONTINUOUS
10
111.66
20
-85.4287
11
111.352
21
-85.4287
0
LINE
8
BLACK
6
CONTINUOUS
10
111.352
20
-85.4287
11
111.049
21
-85.4889
0
LINE
8
BLACK
6
CONTINUOUS
10
111.049
20
-85.4889
11
110.764
21
-85.607
0
LINE
8
BLACK
6
CONTINUOUS
10
110.764
20
-85.607
11
110.508
21
-85.7784
0
LINE
8
BLACK
6
CONTINUOUS
10
110.508
20
-85.7784
11
110.289
21
-85.9965
0
LINE
8
BLACK
6
CONTINUOUS
10
110.289
20
-85.9965
11
110.118
21
-86.2531
0
LINE
8
BLACK
6
CONTINUOUS
10
110.118
20
-86.2531
11
110
21
-86.5381
0
LINE
8
BLACK
6
CONTINUOUS
10
110
20
-86.5381
11
109.94
21
-86.8407
0
LINE
8
BLACK
6
CONTINUOUS
10
109.94
20
-86.8407
11
109.94
21
-87.1493
0
LINE
8
BLACK
6
CONTINUOUS
10
109.94
20
-87.1493
11
110
21
-87.4519
0
LINE
8
BLACK
6
CONTINUOUS
10
71.8329
20
-86.5178
11
71.9562
21
-86.2201
0
LINE
8
BLACK
6
CONTINUOUS
10
71.9562
20
-86.2201
11
72.1353
21
-85.9521
0
LINE
8
BLACK
6
CONTINUOUS
10
72.1353
20
-85.9521
11
72.3631
21
-85.7243
0
LINE
8
BLACK
6
CONTINUOUS
10
72.3631
20
-85.7243
11
72.6311
21
-85.5452
0
LINE
8
BLACK
6
CONTINUOUS
10
72.6311
20
-85.5452
11
72.9288
21
-85.4219
0
LINE
8
BLACK
6
CONTINUOUS
10
72.9288
20
-85.4219
11
73.2449
21
-85.359
0
LINE
8
BLACK
6
CONTINUOUS
10
73.2449
20
-85.359
11
73.5671
21
-85.359
0
LINE
8
BLACK
6
CONTINUOUS
10
73.5671
20
-85.359
11
73.8832
21
-85.4219
0
LINE
8
BLACK
6
CONTINUOUS
10
73.8832
20
-85.4219
11
74.1809
21
-85.5452
0
LINE
8
BLACK
6
CONTINUOUS
10
74.1809
20
-85.5452
11
74.4489
21
-85.7243
0
LINE
8
BLACK
6
CONTINUOUS
10
74.4489
20
-85.7243
11
74.6767
21
-85.9521
0
LINE
8
BLACK
6
CONTINUOUS
10
74.6767
20
-85.9521
11
74.8558
21
-86.2201
0
LINE
8
BLACK
6
CONTINUOUS
10
74.8558
20
-86.2201
11
74.9791
21
-86.5178
0
LINE
8
BLACK
6
CONTINUOUS
10
74.9791
20
-86.5178
11
75.042
21
-86.8339
0
LINE
8
BLACK
6
CONTINUOUS
10
75.042
20
-86.8339
11
75.042
21
-87.1561
0
LINE
8
BLACK
6
CONTINUOUS
10
75.042
20
-87.1561
11
74.9791
21
-87.4722
0
LINE
8
BLACK
6
CONTINUOUS
10
74.9791
20
-87.4722
11
74.8558
21
-87.7699
0
LINE
8
BLACK
6
CONTINUOUS
10
74.8558
20
-87.7699
11
74.6767
21
-88.0379
0
LINE
8
BLACK
6
CONTINUOUS
10
74.6767
20
-88.0379
11
74.4489
21
-88.2657
0
LINE
8
BLACK
6
CONTINUOUS
10
74.4489
20
-88.2657
11
74.1809
21
-88.4448
0
LINE
8
BLACK
6
CONTINUOUS
10
74.1809
20
-88.4448
11
73.8832
21
-88.5681
0
LINE
8
BLACK
6
CONTINUOUS
10
73.8832
20
-88.5681
11
73.5671
21
-88.631
0
LINE
8
BLACK
6
CONTINUOUS
10
73.5671
20
-88.631
11
73.2449
21
-88.631
0
LINE
8
BLACK
6
CONTINUOUS
10
73.2449
20
-88.631
11
72.9288
21
-88.5681
0
LINE
8
BLACK
6
CONTINUOUS
10
72.9288
20
-88.5681
11
72.6311
21
-88.4448
0
LINE
8
BLACK
6
CONTINUOUS
10
72.6311
20
-88.4448
11
72.3631
21
-88.2657
0
LINE
8
BLACK
6
CONTINUOUS
10
72.3631
20
-88.2657
11
72.1353
21
-88.0379
0
LINE
8
BLACK
6
CONTINUOUS
10
72.1353
20
-88.0379
11
71.9562
21
-87.7699
0
LINE
8
BLACK
6
CONTINUOUS
10
71.9562
20
-87.7699
11
71.8329
21
-87.4722
0
LINE
8
BLACK
6
CONTINUOUS
10
71.8329
20
-87.4722
11
71.77
21
-87.1561
0
LINE
8
BLACK
6
CONTINUOUS
10
71.77
20
-87.1561
11
71.77
21
-86.8339
0
LINE
8
BLACK
6
CONTINUOUS
10
71.77
20
-86.8339
11
71.8329
21
-86.5178
0
LINE
8
BLACK
6
CONTINUOUS
10
71.8999
20
-87.4519
11
72.018
21
-87.7369
0
LINE
8
BLACK
6
CONTINUOUS
10
72.018
20
-87.7369
11
72.1894
21
-87.9935
0
LINE
8
BLACK
6
CONTINUOUS
10
72.1894
20
-87.9935
11
72.4075
21
-88.2116
0
LINE
8
BLACK
6
CONTINUOUS
10
72.4075
20
-88.2116
11
72.6641
21
-88.383
0
LINE
8
BLACK
6
CONTINUOUS
10
72.6641
20
-88.383
11
72.9491
21
-88.5011
0
LINE
8
BLACK
6
CONTINUOUS
10
72.9491
20
-88.5011
11
73.2517
21
-88.5613
0
LINE
8
BLACK
6
CONTINUOUS
10
73.2517
20
-88.5613
11
73.5603
21
-88.5613
0
LINE
8
BLACK
6
CONTINUOUS
10
73.5603
20
-88.5613
11
73.8629
21
-88.5011
0
LINE
8
BLACK
6
CONTINUOUS
10
73.8629
20
-88.5011
11
74.1479
21
-88.383
0
LINE
8
BLACK
6
CONTINUOUS
10
74.1479
20
-88.383
11
74.4045
21
-88.2116
0
LINE
8
BLACK
6
CONTINUOUS
10
74.4045
20
-88.2116
11
74.6226
21
-87.9935
0
LINE
8
BLACK
6
CONTINUOUS
10
74.6226
20
-87.9935
11
74.794
21
-87.7369
0
LINE
8
BLACK
6
CONTINUOUS
10
74.794
20
-87.7369
11
74.9121
21
-87.4519
0
LINE
8
BLACK
6
CONTINUOUS
10
74.9121
20
-87.4519
11
74.9723
21
-87.1493
0
LINE
8
BLACK
6
CONTINUOUS
10
74.9723
20
-87.1493
11
74.9723
21
-86.8407
0
LINE
8
BLACK
6
CONTINUOUS
10
74.9723
20
-86.8407
11
74.9121
21
-86.5381
0
LINE
8
BLACK
6
CONTINUOUS
10
74.9121
20
-86.5381
11
74.794
21
-86.2531
0
LINE
8
BLACK
6
CONTINUOUS
10
74.794
20
-86.2531
11
74.6226
21
-85.9965
0
LINE
8
BLACK
6
CONTINUOUS
10
74.6226
20
-85.9965
11
74.4045
21
-85.7784
0
LINE
8
BLACK
6
CONTINUOUS
10
74.4045
20
-85.7784
11
74.1479
21
-85.607
0
LINE
8
BLACK
6
CONTINUOUS
10
74.1479
20
-85.607
11
73.8629
21
-85.4889
0
LINE
8
BLACK
6
CONTINUOUS
10
73.8629
20
-85.4889
11
73.5603
21
-85.4287
0
LINE
8
BLACK
6
CONTINUOUS
10
73.5603
20
-85.4287
11
73.2517
21
-85.4287
0
LINE
8
BLACK
6
CONTINUOUS
10
73.2517
20
-85.4287
11
72.9491
21
-85.4889
0
LINE
8
BLACK
6
CONTINUOUS
10
72.9491
20
-85.4889
11
72.6641
21
-85.607
0
LINE
8
BLACK
6
CONTINUOUS
10
72.6641
20
-85.607
11
72.4075
21
-85.7784
0
LINE
8
BLACK
6
CONTINUOUS
10
72.4075
20
-85.7784
11
72.1894
21
-85.9965
0
LINE
8
BLACK
6
CONTINUOUS
10
72.1894
20
-85.9965
11
72.018
21
-86.2531
0
LINE
8
BLACK
6
CONTINUOUS
10
72.018
20
-86.2531
11
71.8999
21
-86.5381
0
LINE
8
BLACK
6
CONTINUOUS
10
71.8999
20
-86.5381
11
71.8397
21
-86.8407
0
LINE
8
BLACK
6
CONTINUOUS
10
71.8397
20
-86.8407
11
71.8397
21
-87.1493
0
LINE
8
BLACK
6
CONTINUOUS
10
71.8397
20
-87.1493
11
71.8999
21
-87.4519
0
LINE
8
BLACK
6
CONTINUOUS
10
90.8829
20
-67.4678
11
91.0062
21
-67.1701
0
LINE
8
BLACK
6
CONTINUOUS
10
91.0062
20
-67.1701
11
91.1853
21
-66.9021
0
LINE
8
BLACK
6
CONTINUOUS
10
91.1853
20
-66.9021
11
91.4131
21
-66.6743
0
LINE
8
BLACK
6
CONTINUOUS
10
91.4131
20
-66.6743
11
91.6811
21
-66.4952
0
LINE
8
BLACK
6
CONTINUOUS
10
91.6811
20
-66.4952
11
91.9788
21
-66.3719
0
LINE
8
BLACK
6
CONTINUOUS
10
91.9788
20
-66.3719
11
92.2949
21
-66.309
0
LINE
8
BLACK
6
CONTINUOUS
10
92.2949
20
-66.309
11
92.6171
21
-66.309
0
LINE
8
BLACK
6
CONTINUOUS
10
92.6171
20
-66.309
11
92.9332
21
-66.3719
0
LINE
8
BLACK
6
CONTINUOUS
10
92.9332
20
-66.3719
11
93.2309
21
-66.4952
0
LINE
8
BLACK
6
CONTINUOUS
10
93.2309
20
-66.4952
11
93.4989
21
-66.6743
0
LINE
8
BLACK
6
CONTINUOUS
10
93.4989
20
-66.6743
11
93.7267
21
-66.9021
0
LINE
8
BLACK
6
CONTINUOUS
10
93.7267
20
-66.9021
11
93.9058
21
-67.1701
0
LINE
8
BLACK
6
CONTINUOUS
10
93.9058
20
-67.1701
11
94.0291
21
-67.4678
0
LINE
8
BLACK
6
CONTINUOUS
10
94.0291
20
-67.4678
11
94.092
21
-67.7839
0
LINE
8
BLACK
6
CONTINUOUS
10
94.092
20
-67.7839
11
94.092
21
-68.1061
0
LINE
8
BLACK
6
CONTINUOUS
10
94.092
20
-68.1061
11
94.0291
21
-68.4222
0
LINE
8
BLACK
6
CONTINUOUS
10
94.0291
20
-68.4222
11
93.9058
21
-68.7199
0
LINE
8
BLACK
6
CONTINUOUS
10
93.9058
20
-68.7199
11
93.7267
21
-68.9879
0
LINE
8
BLACK
6
CONTINUOUS
10
93.7267
20
-68.9879
11
93.4989
21
-69.2157
0
LINE
8
BLACK
6
CONTINUOUS
10
93.4989
20
-69.2157
11
93.2309
21
-69.3948
0
LINE
8
BLACK
6
CONTINUOUS
10
93.2309
20
-69.3948
11
92.9332
21
-69.5181
0
LINE
8
BLACK
6
CONTINUOUS
10
92.9332
20
-69.5181
11
92.6171
21
-69.581
0
LINE
8
BLACK
6
CONTINUOUS
10
92.6171
20
-69.581
11
92.2949
21
-69.581
0
LINE
8
BLACK
6
CONTINUOUS
10
92.2949
20
-69.581
11
91.9788
21
-69.5181
0
LINE
8
BLACK
6
CONTINUOUS
10
91.9788
20
-69.5181
11
91.6811
21
-69.3948
0
LINE
8
BLACK
6
CONTINUOUS
10
91.6811
20
-69.3948
11
91.4131
21
-69.2157
0
LINE
8
BLACK
6
CONTINUOUS
10
91.4131
20
-69.2157
11
91.1853
21
-68.9879
0
LINE
8
BLACK
6
CONTINUOUS
10
91.1853
20
-68.9879
11
91.0062
21
-68.7199
0
LINE
8
BLACK
6
CONTINUOUS
10
91.0062
20
-68.7199
11
90.8829
21
-68.4222
0
LINE
8
BLACK
6
CONTINUOUS
10
90.8829
20
-68.4222
11
90.82
21
-68.1061
0
LINE
8
BLACK
6
CONTINUOUS
10
90.82
20
-68.1061
11
90.82
21
-67.7839
0
LINE
8
BLACK
6
CONTINUOUS
10
90.82
20
-67.7839
11
90.8829
21
-67.4678
0
LINE
8
BLACK
6
CONTINUOUS
10
90.9499
20
-68.4019
11
91.068
21
-68.6869
0
LINE
8
BLACK
6
CONTINUOUS
10
91.068
20
-68.6869
11
91.2394
21
-68.9435
0
LINE
8
BLACK
6
CONTINUOUS
10
91.2394
20
-68.9435
11
91.4575
21
-69.1616
0
LINE
8
BLACK
6
CONTINUOUS
10
91.4575
20
-69.1616
11
91.7141
21
-69.333
0
LINE
8
BLACK
6
CONTINUOUS
10
91.7141
20
-69.333
11
91.9991
21
-69.4511
0
LINE
8
BLACK
6
CONTINUOUS
10
91.9991
20
-69.4511
11
92.3017
21
-69.5113
0
LINE
8
BLACK
6
CONTINUOUS
10
92.3017
20
-69.5113
11
92.6103
21
-69.5113
0
LINE
8
BLACK
6
CONTINUOUS
10
92.6103
20
-69.5113
11
92.9129
21
-69.4511
0
LINE
8
BLACK
6
CONTINUOUS
10
92.9129
20
-69.4511
11
93.1979
21
-69.333
0
LINE
8
BLACK
6
CONTINUOUS
10
93.1979
20
-69.333
11
93.4545
21
-69.1616
0
LINE
8
BLACK
6
CONTINUOUS
10
93.4545
20
-69.1616
11
93.6726
21
-68.9435
0
LINE
8
BLACK
6
CONTINUOUS
10
93.6726
20
-68.9435
11
93.844
21
-68.6869
0
LINE
8
BLACK
6
CONTINUOUS
10
93.844
20
-68.6869
11
93.9621
21
-68.4019
0
LINE
8
BLACK
6
CONTINUOUS
10
93.9621
20
-68.4019
11
94.0223
21
-68.0993
0
LINE
8
BLACK
6
CONTINUOUS
10
94.0223
20
-68.0993
11
94.0223
21
-67.7907
0
LINE
8
BLACK
6
CONTINUOUS
10
94.0223
20
-67.7907
11
93.9621
21
-67.4881
0
LINE
8
BLACK
6
CONTINUOUS
10
93.9621
20
-67.4881
11
93.844
21
-67.2031
0
LINE
8
BLACK
6
CONTINUOUS
10
93.844
20
-67.2031
11
93.6726
21
-66.9465
0
LINE
8
BLACK
6
CONTINUOUS
10
93.6726
20
-66.9465
11
93.4545
21
-66.7284
0
LINE
8
BLACK
6
CONTINUOUS
10
93.4545
20
-66.7284
11
93.1979
21
-66.557
0
LINE
8
BLACK
6
CONTINUOUS
10
93.1979
20
-66.557
11
92.9129
21
-66.4389
0
LINE
8
BLACK
6
CONTINUOUS
10
92.9129
20
-66.4389
11
92.6103
21
-66.3787
0
LINE
8
BLACK
6
CONTINUOUS
10
92.6103
20
-66.3787
11
92.3017
21
-66.3787
0
LINE
8
BLACK
6
CONTINUOUS
10
92.3017
20
-66.3787
11
91.9991
21
-66.4389
0
LINE
8
BLACK
6
CONTINUOUS
10
91.9991
20
-66.4389
11
91.7141
21
-66.557
0
LINE
8
BLACK
6
CONTINUOUS
10
91.7141
20
-66.557
11
91.4575
21
-66.7284
0
LINE
8
BLACK
6
CONTINUOUS
10
91.4575
20
-66.7284
11
91.2394
21
-66.9465
0
LINE
8
BLACK
6
CONTINUOUS
10
91.2394
20
-66.9465
11
91.068
21
-67.2031
0
LINE
8
BLACK
6
CONTINUOUS
10
91.068
20
-67.2031
11
90.9499
21
-67.4881
0
LINE
8
BLACK
6
CONTINUOUS
10
90.9499
20
-67.4881
11
90.8897
21
-67.7907
0
LINE
8
BLACK
6
CONTINUOUS
10
90.8897
20
-67.7907
11
90.8897
21
-68.0993
0
LINE
8
BLACK
6
CONTINUOUS
10
90.8897
20
-68.0993
11
90.9499
21
-68.4019
0
LINE
8
BLACK
6
CONTINUOUS
10
51.1156
20
-65.966
11
51.2004
21
-65.7613
0
LINE
8
BLACK
6
CONTINUOUS
10
51.2004
20
-65.7613
11
51.3234
21
-65.5771
0
LINE
8
BLACK
6
CONTINUOUS
10
51.3234
20
-65.5771
11
51.4801
21
-65.4204
0
LINE
8
BLACK
6
CONTINUOUS
10
51.4801
20
-65.4204
11
51.6643
21
-65.2974
0
LINE
8
BLACK
6
CONTINUOUS
10
51.6643
20
-65.2974
11
51.869
21
-65.2126
0
LINE
8
BLACK
6
CONTINUOUS
10
51.869
20
-65.2126
11
52.0862
21
-65.1694
0
LINE
8
BLACK
6
CONTINUOUS
10
52.0862
20
-65.1694
11
52.3078
21
-65.1694
0
LINE
8
BLACK
6
CONTINUOUS
10
52.3078
20
-65.1694
11
52.525
21
-65.2126
0
LINE
8
BLACK
6
CONTINUOUS
10
52.525
20
-65.2126
11
52.7297
21
-65.2974
0
LINE
8
BLACK
6
CONTINUOUS
10
52.7297
20
-65.2974
11
52.9139
21
-65.4204
0
LINE
8
BLACK
6
CONTINUOUS
10
52.9139
20
-65.4204
11
53.0706
21
-65.5771
0
LINE
8
BLACK
6
CONTINUOUS
10
53.0706
20
-65.5771
11
53.1936
21
-65.7613
0
LINE
8
BLACK
6
CONTINUOUS
10
53.1936
20
-65.7613
11
53.2784
21
-65.966
0
LINE
8
BLACK
6
CONTINUOUS
10
53.2784
20
-65.966
11
53.3216
21
-66.1832
0
LINE
8
BLACK
6
CONTINUOUS
10
53.3216
20
-66.1832
11
53.3216
21
-66.4048
0
LINE
8
BLACK
6
CONTINUOUS
10
53.3216
20
-66.4048
11
53.2784
21
-66.622
0
LINE
8
BLACK
6
CONTINUOUS
10
53.2784
20
-66.622
11
53.1936
21
-66.8267
0
LINE
8
BLACK
6
CONTINUOUS
10
53.1936
20
-66.8267
11
53.0706
21
-67.0109
0
LINE
8
BLACK
6
CONTINUOUS
10
53.0706
20
-67.0109
11
52.9139
21
-67.1676
0
LINE
8
BLACK
6
CONTINUOUS
10
52.9139
20
-67.1676
11
52.7297
21
-67.2906
0
LINE
8
BLACK
6
CONTINUOUS
10
52.7297
20
-67.2906
11
52.525
21
-67.3754
0
LINE
8
BLACK
6
CONTINUOUS
10
52.525
20
-67.3754
11
52.3078
21
-67.4186
0
LINE
8
BLACK
6
CONTINUOUS
10
52.3078
20
-67.4186
11
52.0862
21
-67.4186
0
LINE
8
BLACK
6
CONTINUOUS
10
52.0862
20
-67.4186
11
51.869
21
-67.3754
0
LINE
8
BLACK
6
CONTINUOUS
10
51.869
20
-67.3754
11
51.6643
21
-67.2906
0
LINE
8
BLACK
6
CONTINUOUS
10
51.6643
20
-67.2906
11
51.4801
21
-67.1676
0
LINE
8
BLACK
6
CONTINUOUS
10
51.4801
20
-67.1676
11
51.3234
21
-67.0109
0
LINE
8
BLACK
6
CONTINUOUS
10
51.3234
20
-67.0109
11
51.2004
21
-66.8267
0
LINE
8
BLACK
6
CONTINUOUS
10
51.2004
20
-66.8267
11
51.1156
21
-66.622
0
LINE
8
BLACK
6
CONTINUOUS
10
51.1156
20
-66.622
11
51.0724
21
-66.4048
0
LINE
8
BLACK
6
CONTINUOUS
10
51.0724
20
-66.4048
11
51.0724
21
-66.1832
0
LINE
8
BLACK
6
CONTINUOUS
10
51.0724
20
-66.1832
11
51.1156
21
-65.966
0
LINE
8
BLACK
6
CONTINUOUS
10
51.1826
20
-66.6017
11
51.2621
21
-66.7937
0
LINE
8
BLACK
6
CONTINUOUS
10
51.2621
20
-66.7937
11
51.3775
21
-66.9665
0
LINE
8
BLACK
6
CONTINUOUS
10
51.3775
20
-66.9665
11
51.5245
21
-67.1135
0
LINE
8
BLACK
6
CONTINUOUS
10
51.5245
20
-67.1135
11
51.6973
21
-67.2289
0
LINE
8
BLACK
6
CONTINUOUS
10
51.6973
20
-67.2289
11
51.8893
21
-67.3084
0
LINE
8
BLACK
6
CONTINUOUS
10
51.8893
20
-67.3084
11
52.0931
21
-67.349
0
LINE
8
BLACK
6
CONTINUOUS
10
52.0931
20
-67.349
11
52.3009
21
-67.349
0
LINE
8
BLACK
6
CONTINUOUS
10
52.3009
20
-67.349
11
52.5047
21
-67.3084
0
LINE
8
BLACK
6
CONTINUOUS
10
52.5047
20
-67.3084
11
52.6967
21
-67.2289
0
LINE
8
BLACK
6
CONTINUOUS
10
52.6967
20
-67.2289
11
52.8695
21
-67.1135
0
LINE
8
BLACK
6
CONTINUOUS
10
52.8695
20
-67.1135
11
53.0165
21
-66.9665
0
LINE
8
BLACK
6
CONTINUOUS
10
53.0165
20
-66.9665
11
53.1319
21
-66.7937
0
LINE
8
BLACK
6
CONTINUOUS
10
53.1319
20
-66.7937
11
53.2114
21
-66.6017
0
LINE
8
BLACK
6
CONTINUOUS
10
53.2114
20
-66.6017
11
53.252
21
-66.3979
0
LINE
8
BLACK
6
CONTINUOUS
10
53.252
20
-66.3979
11
53.252
21
-66.1901
0
LINE
8
BLACK
6
CONTINUOUS
10
53.252
20
-66.1901
11
53.2114
21
-65.9863
0
LINE
8
BLACK
6
CONTINUOUS
10
53.2114
20
-65.9863
11
53.1319
21
-65.7943
0
LINE
8
BLACK
6
CONTINUOUS
10
53.1319
20
-65.7943
11
53.0165
21
-65.6215
0
LINE
8
BLACK
6
CONTINUOUS
10
53.0165
20
-65.6215
11
52.8695
21
-65.4745
0
LINE
8
BLACK
6
CONTINUOUS
10
52.8695
20
-65.4745
11
52.6967
21
-65.3591
0
LINE
8
BLACK
6
CONTINUOUS
10
52.6967
20
-65.3591
11
52.5047
21
-65.2796
0
LINE
8
BLACK
6
CONTINUOUS
10
52.5047
20
-65.2796
11
52.3009
21
-65.239
0
LINE
8
BLACK
6
CONTINUOUS
10
52.3009
20
-65.239
11
52.0931
21
-65.239
0
LINE
8
BLACK
6
CONTINUOUS
10
52.0931
20
-65.239
11
51.8893
21
-65.2796
0
LINE
8
BLACK
6
CONTINUOUS
10
51.8893
20
-65.2796
11
51.6973
21
-65.3591
0
LINE
8
BLACK
6
CONTINUOUS
10
51.6973
20
-65.3591
11
51.5245
21
-65.4745
0
LINE
8
BLACK
6
CONTINUOUS
10
51.5245
20
-65.4745
11
51.3775
21
-65.6215
0
LINE
8
BLACK
6
CONTINUOUS
10
51.3775
20
-65.6215
11
51.2621
21
-65.7943
0
LINE
8
BLACK
6
CONTINUOUS
10
51.2621
20
-65.7943
11
51.1826
21
-65.9863
0
LINE
8
BLACK
6
CONTINUOUS
10
51.1826
20
-65.9863
11
51.142
21
-66.1901
0
LINE
8
BLACK
6
CONTINUOUS
10
51.142
20
-66.1901
11
51.142
21
-66.3979
0
LINE
8
BLACK
6
CONTINUOUS
10
51.142
20
-66.3979
11
51.1826
21
-66.6017
0
LINE
8
BLACK
6
CONTINUOUS
10
111.695
20
-56.06
11
111.779
21
-55.8553
0
LINE
8
BLACK
6
CONTINUOUS
10
111.779
20
-55.8553
11
111.902
21
-55.6711
0
LINE
8
BLACK
6
CONTINUOUS
10
111.902
20
-55.6711
11
112.059
21
-55.5144
0
LINE
8
BLACK
6
CONTINUOUS
10
112.059
20
-55.5144
11
112.243
21
-55.3914
0
LINE
8
BLACK
6
CONTINUOUS
10
112.243
20
-55.3914
11
112.448
21
-55.3066
0
LINE
8
BLACK
6
CONTINUOUS
10
112.448
20
-55.3066
11
112.665
21
-55.2634
0
LINE
8
BLACK
6
CONTINUOUS
10
112.665
20
-55.2634
11
112.887
21
-55.2634
0
LINE
8
BLACK
6
CONTINUOUS
10
112.887
20
-55.2634
11
113.104
21
-55.3066
0
LINE
8
BLACK
6
CONTINUOUS
10
113.104
20
-55.3066
11
113.309
21
-55.3914
0
LINE
8
BLACK
6
CONTINUOUS
10
113.309
20
-55.3914
11
113.493
21
-55.5144
0
LINE
8
BLACK
6
CONTINUOUS
10
113.493
20
-55.5144
11
113.65
21
-55.6711
0
LINE
8
BLACK
6
CONTINUOUS
10
113.65
20
-55.6711
11
113.773
21
-55.8553
0
LINE
8
BLACK
6
CONTINUOUS
10
113.773
20
-55.8553
11
113.857
21
-56.06
0
LINE
8
BLACK
6
CONTINUOUS
10
113.857
20
-56.06
11
113.901
21
-56.2772
0
LINE
8
BLACK
6
CONTINUOUS
10
113.901
20
-56.2772
11
113.901
21
-56.4988
0
LINE
8
BLACK
6
CONTINUOUS
10
113.901
20
-56.4988
11
113.857
21
-56.716
0
LINE
8
BLACK
6
CONTINUOUS
10
113.857
20
-56.716
11
113.773
21
-56.9207
0
LINE
8
BLACK
6
CONTINUOUS
10
113.773
20
-56.9207
11
113.65
21
-57.1049
0
LINE
8
BLACK
6
CONTINUOUS
10
113.65
20
-57.1049
11
113.493
21
-57.2616
0
LINE
8
BLACK
6
CONTINUOUS
10
113.493
20
-57.2616
11
113.309
21
-57.3846
0
LINE
8
BLACK
6
CONTINUOUS
10
113.309
20
-57.3846
11
113.104
21
-57.4694
0
LINE
8
BLACK
6
CONTINUOUS
10
113.104
20
-57.4694
11
112.887
21
-57.5126
0
LINE
8
BLACK
6
CONTINUOUS
10
112.887
20
-57.5126
11
112.665
21
-57.5126
0
LINE
8
BLACK
6
CONTINUOUS
10
112.665
20
-57.5126
11
112.448
21
-57.4694
0
LINE
8
BLACK
6
CONTINUOUS
10
112.448
20
-57.4694
11
112.243
21
-57.3846
0
LINE
8
BLACK
6
CONTINUOUS
10
112.243
20
-57.3846
11
112.059
21
-57.2616
0
LINE
8
BLACK
6
CONTINUOUS
10
112.059
20
-57.2616
11
111.902
21
-57.1049
0
LINE
8
BLACK
6
CONTINUOUS
10
111.902
20
-57.1049
11
111.779
21
-56.9207
0
LINE
8
BLACK
6
CONTINUOUS
10
111.779
20
-56.9207
11
111.695
21
-56.716
0
LINE
8
BLACK
6
CONTINUOUS
10
111.695
20
-56.716
11
111.651
21
-56.4988
0
LINE
8
BLACK
6
CONTINUOUS
10
111.651
20
-56.4988
11
111.651
21
-56.2772
0
LINE
8
BLACK
6
CONTINUOUS
10
111.651
20
-56.2772
11
111.695
21
-56.06
0
LINE
8
BLACK
6
CONTINUOUS
10
111.762
20
-56.6957
11
111.841
21
-56.8877
0
LINE
8
BLACK
6
CONTINUOUS
10
111.841
20
-56.8877
11
111.957
21
-57.0605
0
LINE
8
BLACK
6
CONTINUOUS
10
111.957
20
-57.0605
11
112.103
21
-57.2075
0
LINE
8
BLACK
6
CONTINUOUS
10
112.103
20
-57.2075
11
112.276
21
-57.3229
0
LINE
8
BLACK
6
CONTINUOUS
10
112.276
20
-57.3229
11
112.468
21
-57.4024
0
LINE
8
BLACK
6
CONTINUOUS
10
112.468
20
-57.4024
11
112.672
21
-57.443
0
LINE
8
BLACK
6
CONTINUOUS
10
112.672
20
-57.443
11
112.88
21
-57.443
0
LINE
8
BLACK
6
CONTINUOUS
10
112.88
20
-57.443
11
113.084
21
-57.4024
0
LINE
8
BLACK
6
CONTINUOUS
10
113.084
20
-57.4024
11
113.276
21
-57.3229
0
LINE
8
BLACK
6
CONTINUOUS
10
113.276
20
-57.3229
11
113.449
21
-57.2075
0
LINE
8
BLACK
6
CONTINUOUS
10
113.449
20
-57.2075
11
113.595
21
-57.0605
0
LINE
8
BLACK
6
CONTINUOUS
10
113.595
20
-57.0605
11
113.711
21
-56.8877
0
LINE
8
BLACK
6
CONTINUOUS
10
113.711
20
-56.8877
11
113.79
21
-56.6957
0
LINE
8
BLACK
6
CONTINUOUS
10
113.79
20
-56.6957
11
113.831
21
-56.4919
0
LINE
8
BLACK
6
CONTINUOUS
10
113.831
20
-56.4919
11
113.831
21
-56.2841
0
LINE
8
BLACK
6
CONTINUOUS
10
113.831
20
-56.2841
11
113.79
21
-56.0803
0
LINE
8
BLACK
6
CONTINUOUS
10
113.79
20
-56.0803
11
113.711
21
-55.8883
0
LINE
8
BLACK
6
CONTINUOUS
10
113.711
20
-55.8883
11
113.595
21
-55.7155
0
LINE
8
BLACK
6
CONTINUOUS
10
113.595
20
-55.7155
11
113.449
21
-55.5685
0
LINE
8
BLACK
6
CONTINUOUS
10
113.449
20
-55.5685
11
113.276
21
-55.4531
0
LINE
8
BLACK
6
CONTINUOUS
10
113.276
20
-55.4531
11
113.084
21
-55.3736
0
LINE
8
BLACK
6
CONTINUOUS
10
113.084
20
-55.3736
11
112.88
21
-55.333
0
LINE
8
BLACK
6
CONTINUOUS
10
112.88
20
-55.333
11
112.672
21
-55.333
0
LINE
8
BLACK
6
CONTINUOUS
10
112.672
20
-55.333
11
112.468
21
-55.3736
0
LINE
8
BLACK
6
CONTINUOUS
10
112.468
20
-55.3736
11
112.276
21
-55.4531
0
LINE
8
BLACK
6
CONTINUOUS
10
112.276
20
-55.4531
11
112.103
21
-55.5685
0
LINE
8
BLACK
6
CONTINUOUS
10
112.103
20
-55.5685
11
111.957
21
-55.7155
0
LINE
8
BLACK
6
CONTINUOUS
10
111.957
20
-55.7155
11
111.841
21
-55.8883
0
LINE
8
BLACK
6
CONTINUOUS
10
111.841
20
-55.8883
11
111.762
21
-56.0803
0
LINE
8
BLACK
6
CONTINUOUS
10
111.762
20
-56.0803
11
111.721
21
-56.2841
0
LINE
8
BLACK
6
CONTINUOUS
10
111.721
20
-56.2841
11
111.721
21
-56.4919
0
LINE
8
BLACK
6
CONTINUOUS
10
111.721
20
-56.4919
11
111.762
21
-56.6957
  0
ENDSEC
  0
EOF
