  0
SECTION
  2
HEADER
  9
$ANGBASE
  50
0.0
  9
$ANGDIR
  70
1
  9
$MEASUREMENT
  70
1
  0
ENDSEC
  0
SECTION
  2
TABLES
  0
TABLE
  2
LTYPE
  70
4
  0
LTYPE
  5
40F
  2
CONTINUOUS
  70
0
  3
Solid line
  72
65
  73
0
  40
0.0
  0
LTYPE
  5
410
  2
DASHDOT
 70
0
  3
Dash Dot ____ _ ____ _
 72
65
 73
4
 40
2.0
 49
1.25
 49
-0.25
 49
0.25
 49
-0.25
  0
LTYPE
  5
411
  2
DASHED
 70
0
  3
Dashed __ __ __ __ __
 72
65
 73
2
 40
0.75
 49
0.5
 49
-0.25
  0
LTYPE
  5
43B
  2
DOTTED
 70
0
  3
Dotted .  .  .  .
 72
65
 73
2
 40
0.2
 49
0.0
 49
-0.2
  0
ENDTAB
  0
TABLE
  2
STYLE
  70
4
  0
STYLE
  2
KICAD
  70
0
  40
0
  41
1
  42
1
  50
0
  71
0
  3
isocp.shx
  0
STYLE
  2
KICADB
  70
0
  40
0
  41
1
  42
1
  50
0
  71
0
  3
isocp.shx
  0
STYLE
  2
KICADI
  70
0
  40
0
  41
1
  42
1
  50
15
  71
0
  3
isocp.shx
  0
STYLE
  2
KICADBI
  70
0
  40
0
  41
1
  42
1
  50
15
  71
0
  3
isocp.shx
  0
ENDTAB
  0
TABLE
  2
LAYER
  70
1
  0
LAYER
  2
BLACK
  70
0
  62
7
  6
CONTINUOUS
  0
ENDTAB
  0
ENDSEC
  0
SECTION
  2
ENTITIES
0
LINE
8
BLACK
6
CONTINUOUS
10
129.001
20
-89.545
11
129
21
-89.5459
0
LINE
8
BLACK
6
CONTINUOUS
10
129
20
-89.5459
11
129
21
-89.5469
0
LINE
8
BLACK
6
CONTINUOUS
10
129
20
-89.5469
11
128.965
21
-89.8001
0
LINE
8
BLACK
6
CONTINUOUS
10
128.965
20
-89.8001
11
128.899
21
-90.0468
0
LINE
8
BLACK
6
CONTINUOUS
10
128.899
20
-90.0468
11
128.801
21
-90.2831
0
LINE
8
BLACK
6
CONTINUOUS
10
128.801
20
-90.2831
11
128.674
21
-90.5051
0
LINE
8
BLACK
6
CONTINUOUS
10
128.674
20
-90.5051
11
128.52
21
-90.7091
0
LINE
8
BLACK
6
CONTINUOUS
10
128.52
20
-90.7091
11
128.341
21
-90.892
0
LINE
8
BLACK
6
CONTINUOUS
10
128.341
20
-90.892
11
128.141
21
-91.0507
0
LINE
8
BLACK
6
CONTINUOUS
10
128.141
20
-91.0507
11
127.922
21
-91.1827
0
LINE
8
BLACK
6
CONTINUOUS
10
127.922
20
-91.1827
11
127.688
21
-91.2859
0
LINE
8
BLACK
6
CONTINUOUS
10
127.688
20
-91.2859
11
127.443
21
-91.3586
0
LINE
8
BLACK
6
CONTINUOUS
10
127.443
20
-91.3586
11
127.191
21
-91.3995
0
LINE
8
BLACK
6
CONTINUOUS
10
127.191
20
-91.3995
11
126.936
21
-91.4081
0
LINE
8
BLACK
6
CONTINUOUS
10
126.936
20
-91.4081
11
126.936
21
-91.4081
0
LINE
8
BLACK
6
CONTINUOUS
10
126.936
20
-91.4081
11
126.936
21
-91.4081
0
LINE
8
BLACK
6
CONTINUOUS
10
126.936
20
-91.4081
11
126.935
21
-91.4081
0
LINE
8
BLACK
6
CONTINUOUS
10
126.935
20
-91.4081
11
126.927
21
-91.4043
0
LINE
8
BLACK
6
CONTINUOUS
10
126.927
20
-91.4043
11
126.925
21
-91.4036
0
LINE
8
BLACK
6
CONTINUOUS
10
126.925
20
-91.4036
11
123.477
21
-91.4281
0
LINE
8
BLACK
6
CONTINUOUS
10
123.477
20
-91.4281
11
120.019
21
-91.4897
0
LINE
8
BLACK
6
CONTINUOUS
10
120.019
20
-91.4897
11
116.562
21
-91.5882
0
LINE
8
BLACK
6
CONTINUOUS
10
116.562
20
-91.5882
11
113.106
21
-91.7236
0
LINE
8
BLACK
6
CONTINUOUS
10
113.106
20
-91.7236
11
109.651
21
-91.8958
0
LINE
8
BLACK
6
CONTINUOUS
10
109.651
20
-91.8958
11
106.199
21
-92.105
0
LINE
8
BLACK
6
CONTINUOUS
10
106.199
20
-92.105
11
102.749
21
-92.351
0
LINE
8
BLACK
6
CONTINUOUS
10
102.749
20
-92.351
11
99.302
21
-92.6338
0
LINE
8
BLACK
6
CONTINUOUS
10
99.302
20
-92.6338
11
95.8581
21
-92.9534
0
LINE
8
BLACK
6
CONTINUOUS
10
95.8581
20
-92.9534
11
92.4178
21
-93.3098
0
LINE
8
BLACK
6
CONTINUOUS
10
92.4178
20
-93.3098
11
88.9815
21
-93.7029
0
LINE
8
BLACK
6
CONTINUOUS
10
88.9815
20
-93.7029
11
85.5495
21
-94.1326
0
LINE
8
BLACK
6
CONTINUOUS
10
85.5495
20
-94.1326
11
82.1224
21
-94.599
0
LINE
8
BLACK
6
CONTINUOUS
10
82.1224
20
-94.599
11
78.7005
21
-95.1019
0
LINE
8
BLACK
6
CONTINUOUS
10
78.7005
20
-95.1019
11
75.2841
21
-95.6414
0
LINE
8
BLACK
6
CONTINUOUS
10
75.2841
20
-95.6414
11
71.8736
21
-96.2172
0
LINE
8
BLACK
6
CONTINUOUS
10
71.8736
20
-96.2172
11
68.4696
21
-96.8295
0
LINE
8
BLACK
6
CONTINUOUS
10
68.4696
20
-96.8295
11
65.0722
21
-97.4781
0
LINE
8
BLACK
6
CONTINUOUS
10
65.0722
20
-97.4781
11
61.682
21
-98.1629
0
LINE
8
BLACK
6
CONTINUOUS
10
61.682
20
-98.1629
11
58.31
21
-98.8816
0
LINE
8
BLACK
6
CONTINUOUS
10
58.31
20
-98.8816
11
58.3085
21
-98.8826
0
LINE
8
BLACK
6
CONTINUOUS
10
58.3085
20
-98.8826
11
58.3015
21
-98.8881
0
LINE
8
BLACK
6
CONTINUOUS
10
58.3015
20
-98.8881
11
58.3008
21
-98.888
0
LINE
8
BLACK
6
CONTINUOUS
10
58.3008
20
-98.888
11
58.3002
21
-98.8884
0
LINE
8
BLACK
6
CONTINUOUS
10
58.3002
20
-98.8884
11
58.2914
21
-98.8868
0
LINE
8
BLACK
6
CONTINUOUS
10
58.2914
20
-98.8868
11
58.2911
21
-98.8868
0
LINE
8
BLACK
6
CONTINUOUS
10
58.2911
20
-98.8868
11
56.6876
21
-99.3426
0
LINE
8
BLACK
6
CONTINUOUS
10
56.6876
20
-99.3426
11
55.0841
21
-99.8323
0
LINE
8
BLACK
6
CONTINUOUS
10
55.0841
20
-99.8323
11
53.4904
21
-100.353
0
LINE
8
BLACK
6
CONTINUOUS
10
53.4904
20
-100.353
11
51.9071
21
-100.905
0
LINE
8
BLACK
6
CONTINUOUS
10
51.9071
20
-100.905
11
50.3348
21
-101.487
0
LINE
8
BLACK
6
CONTINUOUS
10
50.3348
20
-101.487
11
48.7742
21
-102.1
0
LINE
8
BLACK
6
CONTINUOUS
10
48.7742
20
-102.1
11
47.2257
21
-102.743
0
LINE
8
BLACK
6
CONTINUOUS
10
47.2257
20
-102.743
11
45.6901
21
-103.416
0
LINE
8
BLACK
6
CONTINUOUS
10
45.6901
20
-103.416
11
44.1678
21
-104.118
0
LINE
8
BLACK
6
CONTINUOUS
10
44.1678
20
-104.118
11
42.6594
21
-104.851
0
LINE
8
BLACK
6
CONTINUOUS
10
42.6594
20
-104.851
11
41.1656
21
-105.612
0
LINE
8
BLACK
6
CONTINUOUS
10
41.1656
20
-105.612
11
39.6868
21
-106.402
0
LINE
8
BLACK
6
CONTINUOUS
10
39.6868
20
-106.402
11
38.2237
21
-107.221
0
LINE
8
BLACK
6
CONTINUOUS
10
38.2237
20
-107.221
11
36.785
21
-108.063
0
LINE
8
BLACK
6
CONTINUOUS
10
36.785
20
-108.063
11
36.7848
21
-108.063
0
LINE
8
BLACK
6
CONTINUOUS
10
36.7848
20
-108.063
11
36.7796
21
-108.071
0
LINE
8
BLACK
6
CONTINUOUS
10
36.7796
20
-108.071
11
36.7796
21
-108.071
0
LINE
8
BLACK
6
CONTINUOUS
10
36.7796
20
-108.071
11
36.7789
21
-108.071
0
LINE
8
BLACK
6
CONTINUOUS
10
36.7789
20
-108.071
11
36.7788
21
-108.071
0
LINE
8
BLACK
6
CONTINUOUS
10
36.7788
20
-108.071
11
36.7787
21
-108.071
0
LINE
8
BLACK
6
CONTINUOUS
10
36.7787
20
-108.071
11
36.5505
21
-108.199
0
LINE
8
BLACK
6
CONTINUOUS
10
36.5505
20
-108.199
11
36.3066
21
-108.296
0
LINE
8
BLACK
6
CONTINUOUS
10
36.3066
20
-108.296
11
36.0521
21
-108.359
0
LINE
8
BLACK
6
CONTINUOUS
10
36.0521
20
-108.359
11
35.7914
21
-108.389
0
LINE
8
BLACK
6
CONTINUOUS
10
35.7914
20
-108.389
11
35.5291
21
-108.385
0
LINE
8
BLACK
6
CONTINUOUS
10
35.5291
20
-108.385
11
35.2697
21
-108.345
0
LINE
8
BLACK
6
CONTINUOUS
10
35.2697
20
-108.345
11
35.0176
21
-108.272
0
LINE
8
BLACK
6
CONTINUOUS
10
35.0176
20
-108.272
11
34.7773
21
-108.167
0
LINE
8
BLACK
6
CONTINUOUS
10
34.7773
20
-108.167
11
34.553
21
-108.031
0
LINE
8
BLACK
6
CONTINUOUS
10
34.553
20
-108.031
11
34.3485
21
-107.867
0
LINE
8
BLACK
6
CONTINUOUS
10
34.3485
20
-107.867
11
34.1674
21
-107.677
0
LINE
8
BLACK
6
CONTINUOUS
10
34.1674
20
-107.677
11
34.0129
21
-107.465
0
LINE
8
BLACK
6
CONTINUOUS
10
34.0129
20
-107.465
11
34.0129
21
-107.465
0
LINE
8
BLACK
6
CONTINUOUS
10
34.0129
20
-107.465
11
34.0128
21
-107.464
0
LINE
8
BLACK
6
CONTINUOUS
10
34.0128
20
-107.464
11
34.0123
21
-107.464
0
LINE
8
BLACK
6
CONTINUOUS
10
34.0123
20
-107.464
11
24.7433
21
-91.1984
0
LINE
8
BLACK
6
CONTINUOUS
10
24.7433
20
-91.1984
11
24.7432
21
-91.1977
0
LINE
8
BLACK
6
CONTINUOUS
10
24.7432
20
-91.1977
11
24.7426
21
-91.1972
0
LINE
8
BLACK
6
CONTINUOUS
10
24.7426
20
-91.1972
11
24.7426
21
-91.1972
0
LINE
8
BLACK
6
CONTINUOUS
10
24.7426
20
-91.1972
11
24.6699
21
-91.0145
0
LINE
8
BLACK
6
CONTINUOUS
10
24.6699
20
-91.0145
11
24.6291
21
-90.8222
0
LINE
8
BLACK
6
CONTINUOUS
10
24.6291
20
-90.8222
11
24.6213
21
-90.6258
0
LINE
8
BLACK
6
CONTINUOUS
10
24.6213
20
-90.6258
11
24.6467
21
-90.4309
0
LINE
8
BLACK
6
CONTINUOUS
10
24.6467
20
-90.4309
11
24.7046
21
-90.243
0
LINE
8
BLACK
6
CONTINUOUS
10
24.7046
20
-90.243
11
24.7935
21
-90.0677
0
LINE
8
BLACK
6
CONTINUOUS
10
24.7935
20
-90.0677
11
24.9106
21
-89.9098
0
LINE
8
BLACK
6
CONTINUOUS
10
24.9106
20
-89.9098
11
25.0527
21
-89.7739
0
LINE
8
BLACK
6
CONTINUOUS
10
25.0527
20
-89.7739
11
25.2157
21
-89.664
0
LINE
8
BLACK
6
CONTINUOUS
10
25.2157
20
-89.664
11
25.3949
21
-89.5832
0
LINE
8
BLACK
6
CONTINUOUS
10
25.3949
20
-89.5832
11
25.5851
21
-89.5337
0
LINE
8
BLACK
6
CONTINUOUS
10
25.5851
20
-89.5337
11
25.781
21
-89.5171
0
LINE
8
BLACK
6
CONTINUOUS
10
25.781
20
-89.5171
11
25.781
21
-89.5171
0
LINE
8
BLACK
6
CONTINUOUS
10
25.781
20
-89.5171
11
25.781
21
-89.5171
0
LINE
8
BLACK
6
CONTINUOUS
10
25.781
20
-89.5171
11
38.447
21
-89.5359
0
LINE
8
BLACK
6
CONTINUOUS
10
38.447
20
-89.5359
11
38.4472
21
-89.536
0
LINE
8
BLACK
6
CONTINUOUS
10
38.4472
20
-89.536
11
38.4474
21
-89.5359
0
LINE
8
BLACK
6
CONTINUOUS
10
38.4474
20
-89.5359
11
38.4559
21
-89.5396
0
LINE
8
BLACK
6
CONTINUOUS
10
38.4559
20
-89.5396
11
38.7032
21
-89.5279
0
LINE
8
BLACK
6
CONTINUOUS
10
38.7032
20
-89.5279
11
38.9554
21
-89.4829
0
LINE
8
BLACK
6
CONTINUOUS
10
38.9554
20
-89.4829
11
39.1996
21
-89.4057
0
LINE
8
BLACK
6
CONTINUOUS
10
39.1996
20
-89.4057
11
39.3861
21
-89.3189
0
LINE
8
BLACK
6
CONTINUOUS
10
39.3861
20
-89.3189
11
39.5225
21
-89.2402
0
LINE
8
BLACK
6
CONTINUOUS
10
39.5225
20
-89.2402
11
39.6482
21
-89.1605
0
LINE
8
BLACK
6
CONTINUOUS
10
39.6482
20
-89.1605
11
39.8451
21
-88.9965
0
LINE
8
BLACK
6
CONTINUOUS
10
39.8451
20
-88.9965
11
40.0191
21
-88.8086
0
LINE
8
BLACK
6
CONTINUOUS
10
40.0191
20
-88.8086
11
40.1674
21
-88.5997
0
LINE
8
BLACK
6
CONTINUOUS
10
40.1674
20
-88.5997
11
40.2875
21
-88.3735
0
LINE
8
BLACK
6
CONTINUOUS
10
40.2875
20
-88.3735
11
40.3774
21
-88.1336
0
LINE
8
BLACK
6
CONTINUOUS
10
40.3774
20
-88.1336
11
40.4356
21
-87.8841
0
LINE
8
BLACK
6
CONTINUOUS
10
40.4356
20
-87.8841
11
40.4602
21
-87.6378
0
LINE
8
BLACK
6
CONTINUOUS
10
40.4602
20
-87.6378
11
40.457
21
-87.63
0
LINE
8
BLACK
6
CONTINUOUS
10
40.457
20
-87.63
11
40.457
21
-30.4394
0
LINE
8
BLACK
6
CONTINUOUS
10
40.457
20
-30.4394
11
40.4708
21
-30.2934
0
LINE
8
BLACK
6
CONTINUOUS
10
40.4708
20
-30.2934
11
40.512
21
-30.1527
0
LINE
8
BLACK
6
CONTINUOUS
10
40.512
20
-30.1527
11
40.5789
21
-30.0222
0
LINE
8
BLACK
6
CONTINUOUS
10
40.5789
20
-30.0222
11
40.6691
21
-29.9066
0
LINE
8
BLACK
6
CONTINUOUS
10
40.6691
20
-29.9066
11
40.7796
21
-29.8102
0
LINE
8
BLACK
6
CONTINUOUS
10
40.7796
20
-29.8102
11
40.9062
21
-29.7362
0
LINE
8
BLACK
6
CONTINUOUS
10
40.9062
20
-29.7362
11
40.9062
21
-29.7362
0
LINE
8
BLACK
6
CONTINUOUS
10
40.9062
20
-29.7362
11
40.9073
21
-29.7362
0
LINE
8
BLACK
6
CONTINUOUS
10
40.9073
20
-29.7362
11
40.9081
21
-29.7354
0
LINE
8
BLACK
6
CONTINUOUS
10
40.9081
20
-29.7354
11
43.0421
21
-28.9744
0
LINE
8
BLACK
6
CONTINUOUS
10
43.0421
20
-28.9744
11
45.1877
21
-28.2471
0
LINE
8
BLACK
6
CONTINUOUS
10
45.1877
20
-28.2471
11
47.3445
21
-27.5536
0
LINE
8
BLACK
6
CONTINUOUS
10
47.3445
20
-27.5536
11
49.512
21
-26.8941
0
LINE
8
BLACK
6
CONTINUOUS
10
49.512
20
-26.8941
11
51.6895
21
-26.2688
0
LINE
8
BLACK
6
CONTINUOUS
10
51.6895
20
-26.2688
11
53.8766
21
-25.6778
0
LINE
8
BLACK
6
CONTINUOUS
10
53.8766
20
-25.6778
11
56.0728
21
-25.1212
0
LINE
8
BLACK
6
CONTINUOUS
10
56.0728
20
-25.1212
11
58.2774
21
-24.5993
0
LINE
8
BLACK
6
CONTINUOUS
10
58.2774
20
-24.5993
11
60.49
21
-24.1121
0
LINE
8
BLACK
6
CONTINUOUS
10
60.49
20
-24.1121
11
62.7099
21
-23.6598
0
LINE
8
BLACK
6
CONTINUOUS
10
62.7099
20
-23.6598
11
64.9367
21
-23.2424
0
LINE
8
BLACK
6
CONTINUOUS
10
64.9367
20
-23.2424
11
67.1698
21
-22.8601
0
LINE
8
BLACK
6
CONTINUOUS
10
67.1698
20
-22.8601
11
69.4086
21
-22.513
0
LINE
8
BLACK
6
CONTINUOUS
10
69.4086
20
-22.513
11
71.6526
21
-22.2011
0
LINE
8
BLACK
6
CONTINUOUS
10
71.6526
20
-22.2011
11
73.9012
21
-21.9246
0
LINE
8
BLACK
6
CONTINUOUS
10
73.9012
20
-21.9246
11
76.1539
21
-21.6834
0
LINE
8
BLACK
6
CONTINUOUS
10
76.1539
20
-21.6834
11
78.4101
21
-21.4778
0
LINE
8
BLACK
6
CONTINUOUS
10
78.4101
20
-21.4778
11
78.4112
21
-21.4781
0
LINE
8
BLACK
6
CONTINUOUS
10
78.4112
20
-21.4781
11
78.4123
21
-21.4777
0
LINE
8
BLACK
6
CONTINUOUS
10
78.4123
20
-21.4777
11
82.6136
21
-21.4831
0
LINE
8
BLACK
6
CONTINUOUS
10
82.6136
20
-21.4831
11
82.6136
21
-21.4831
0
LINE
8
BLACK
6
CONTINUOUS
10
82.6136
20
-21.4831
11
84.1955
21
-21.5013
0
LINE
8
BLACK
6
CONTINUOUS
10
84.1955
20
-21.5013
11
85.7766
21
-21.5559
0
LINE
8
BLACK
6
CONTINUOUS
10
85.7766
20
-21.5559
11
87.3561
21
-21.6469
0
LINE
8
BLACK
6
CONTINUOUS
10
87.3561
20
-21.6469
11
88.933
21
-21.7742
0
LINE
8
BLACK
6
CONTINUOUS
10
88.933
20
-21.7742
11
90.5066
21
-21.9377
0
LINE
8
BLACK
6
CONTINUOUS
10
90.5066
20
-21.9377
11
92.0759
21
-22.1374
0
LINE
8
BLACK
6
CONTINUOUS
10
92.0759
20
-22.1374
11
93.6403
21
-22.3731
0
LINE
8
BLACK
6
CONTINUOUS
10
93.6403
20
-22.3731
11
95.1989
21
-22.6448
0
LINE
8
BLACK
6
CONTINUOUS
10
95.1989
20
-22.6448
11
96.7507
21
-22.9522
0
LINE
8
BLACK
6
CONTINUOUS
10
96.7507
20
-22.9522
11
98.2951
21
-23.2953
0
LINE
8
BLACK
6
CONTINUOUS
10
98.2951
20
-23.2953
11
99.8312
21
-23.6739
0
LINE
8
BLACK
6
CONTINUOUS
10
99.8312
20
-23.6739
11
101.358
21
-24.0876
0
LINE
8
BLACK
6
CONTINUOUS
10
101.358
20
-24.0876
11
102.875
21
-24.5364
0
LINE
8
BLACK
6
CONTINUOUS
10
102.875
20
-24.5364
11
104.382
21
-25.02
0
LINE
8
BLACK
6
CONTINUOUS
10
104.382
20
-25.02
11
105.876
21
-25.5381
0
LINE
8
BLACK
6
CONTINUOUS
10
105.876
20
-25.5381
11
107.359
21
-26.0905
0
LINE
8
BLACK
6
CONTINUOUS
10
107.359
20
-26.0905
11
108.828
21
-26.6768
0
LINE
8
BLACK
6
CONTINUOUS
10
108.828
20
-26.6768
11
110.284
21
-27.2968
0
LINE
8
BLACK
6
CONTINUOUS
10
110.284
20
-27.2968
11
111.725
21
-27.9501
0
LINE
8
BLACK
6
CONTINUOUS
10
111.725
20
-27.9501
11
113.15
21
-28.6364
0
LINE
8
BLACK
6
CONTINUOUS
10
113.15
20
-28.6364
11
114.559
21
-29.3553
0
LINE
8
BLACK
6
CONTINUOUS
10
114.559
20
-29.3553
11
115.952
21
-30.1064
0
LINE
8
BLACK
6
CONTINUOUS
10
115.952
20
-30.1064
11
117.326
21
-30.8894
0
LINE
8
BLACK
6
CONTINUOUS
10
117.326
20
-30.8894
11
118.683
21
-31.7038
0
LINE
8
BLACK
6
CONTINUOUS
10
118.683
20
-31.7038
11
120.02
21
-32.5492
0
LINE
8
BLACK
6
CONTINUOUS
10
120.02
20
-32.5492
11
121.337
21
-33.4251
0
LINE
8
BLACK
6
CONTINUOUS
10
121.337
20
-33.4251
11
122.634
21
-34.3311
0
LINE
8
BLACK
6
CONTINUOUS
10
122.634
20
-34.3311
11
123.91
21
-35.2667
0
LINE
8
BLACK
6
CONTINUOUS
10
123.91
20
-35.2667
11
125.164
21
-36.2314
0
LINE
8
BLACK
6
CONTINUOUS
10
125.164
20
-36.2314
11
126.395
21
-37.2247
0
LINE
8
BLACK
6
CONTINUOUS
10
126.395
20
-37.2247
11
127.603
21
-38.2461
0
LINE
8
BLACK
6
CONTINUOUS
10
127.603
20
-38.2461
11
127.603
21
-38.2461
0
LINE
8
BLACK
6
CONTINUOUS
10
127.603
20
-38.2461
11
127.88
21
-38.4743
0
LINE
8
BLACK
6
CONTINUOUS
10
127.88
20
-38.4743
11
128.137
21
-38.7272
0
LINE
8
BLACK
6
CONTINUOUS
10
128.137
20
-38.7272
11
128.37
21
-39.0017
0
LINE
8
BLACK
6
CONTINUOUS
10
128.37
20
-39.0017
11
128.578
21
-39.2957
0
LINE
8
BLACK
6
CONTINUOUS
10
128.578
20
-39.2957
11
128.76
21
-39.6069
0
LINE
8
BLACK
6
CONTINUOUS
10
128.76
20
-39.6069
11
128.914
21
-39.9329
0
LINE
8
BLACK
6
CONTINUOUS
10
128.914
20
-39.9329
11
129.038
21
-40.2711
0
LINE
8
BLACK
6
CONTINUOUS
10
129.038
20
-40.2711
11
129.037
21
-40.2751
0
LINE
8
BLACK
6
CONTINUOUS
10
129.037
20
-40.2751
11
129.039
21
-40.2789
0
LINE
8
BLACK
6
CONTINUOUS
10
129.039
20
-40.2789
11
128.985
21
-48.768
0
LINE
8
BLACK
6
CONTINUOUS
10
128.985
20
-48.768
11
128.985
21
-77.724
0
LINE
8
BLACK
6
CONTINUOUS
10
128.985
20
-77.724
11
129.001
21
-89.545
0
LINE
8
BLACK
6
CONTINUOUS
10
128.935
20
-48.7679
11
128.935
21
-48.7678
0
LINE
8
BLACK
6
CONTINUOUS
10
128.935
20
-48.7678
11
128.989
21
-40.2785
0
LINE
8
BLACK
6
CONTINUOUS
10
128.989
20
-40.2785
11
128.99
21
-40.2753
0
LINE
8
BLACK
6
CONTINUOUS
10
128.99
20
-40.2753
11
128.871
21
-39.9507
0
LINE
8
BLACK
6
CONTINUOUS
10
128.871
20
-39.9507
11
128.719
21
-39.6283
0
LINE
8
BLACK
6
CONTINUOUS
10
128.719
20
-39.6283
11
128.54
21
-39.3207
0
LINE
8
BLACK
6
CONTINUOUS
10
128.54
20
-39.3207
11
128.334
21
-39.03
0
LINE
8
BLACK
6
CONTINUOUS
10
128.334
20
-39.03
11
128.103
21
-38.7586
0
LINE
8
BLACK
6
CONTINUOUS
10
128.103
20
-38.7586
11
127.849
21
-38.5085
0
LINE
8
BLACK
6
CONTINUOUS
10
127.849
20
-38.5085
11
127.581
21
-38.2874
0
LINE
8
BLACK
6
CONTINUOUS
10
127.581
20
-38.2874
11
127.58
21
-38.2872
0
LINE
8
BLACK
6
CONTINUOUS
10
127.58
20
-38.2872
11
127.572
21
-38.285
0
LINE
8
BLACK
6
CONTINUOUS
10
127.572
20
-38.285
11
127.571
21
-38.2842
0
LINE
8
BLACK
6
CONTINUOUS
10
127.571
20
-38.2842
11
127.571
21
-38.2839
0
LINE
8
BLACK
6
CONTINUOUS
10
127.571
20
-38.2839
11
127.567
21
-38.276
0
LINE
8
BLACK
6
CONTINUOUS
10
127.567
20
-38.276
11
127.565
21
-38.2732
0
LINE
8
BLACK
6
CONTINUOUS
10
127.565
20
-38.2732
11
126.366
21
-37.2598
0
LINE
8
BLACK
6
CONTINUOUS
10
126.366
20
-37.2598
11
125.136
21
-36.2671
0
LINE
8
BLACK
6
CONTINUOUS
10
125.136
20
-36.2671
11
123.883
21
-35.303
0
LINE
8
BLACK
6
CONTINUOUS
10
123.883
20
-35.303
11
122.608
21
-34.368
0
LINE
8
BLACK
6
CONTINUOUS
10
122.608
20
-34.368
11
121.312
21
-33.4626
0
LINE
8
BLACK
6
CONTINUOUS
10
121.312
20
-33.4626
11
119.995
21
-32.5873
0
LINE
8
BLACK
6
CONTINUOUS
10
119.995
20
-32.5873
11
118.659
21
-31.7425
0
LINE
8
BLACK
6
CONTINUOUS
10
118.659
20
-31.7425
11
117.303
21
-30.9286
0
LINE
8
BLACK
6
CONTINUOUS
10
117.303
20
-30.9286
11
115.93
21
-30.1462
0
LINE
8
BLACK
6
CONTINUOUS
10
115.93
20
-30.1462
11
114.538
21
-29.3955
0
LINE
8
BLACK
6
CONTINUOUS
10
114.538
20
-29.3955
11
113.13
21
-28.6771
0
LINE
8
BLACK
6
CONTINUOUS
10
113.13
20
-28.6771
11
111.705
21
-27.9913
0
LINE
8
BLACK
6
CONTINUOUS
10
111.705
20
-27.9913
11
110.265
21
-27.3384
0
LINE
8
BLACK
6
CONTINUOUS
10
110.265
20
-27.3384
11
108.811
21
-26.7188
0
LINE
8
BLACK
6
CONTINUOUS
10
108.811
20
-26.7188
11
107.342
21
-26.1329
0
LINE
8
BLACK
6
CONTINUOUS
10
107.342
20
-26.1329
11
105.861
21
-25.5809
0
LINE
8
BLACK
6
CONTINUOUS
10
105.861
20
-25.5809
11
104.367
21
-25.0631
0
LINE
8
BLACK
6
CONTINUOUS
10
104.367
20
-25.0631
11
102.862
21
-24.5799
0
LINE
8
BLACK
6
CONTINUOUS
10
102.862
20
-24.5799
11
101.346
21
-24.1314
0
LINE
8
BLACK
6
CONTINUOUS
10
101.346
20
-24.1314
11
99.8198
21
-23.7179
0
LINE
8
BLACK
6
CONTINUOUS
10
99.8198
20
-23.7179
11
98.2848
21
-23.3396
0
LINE
8
BLACK
6
CONTINUOUS
10
98.2848
20
-23.3396
11
96.7414
21
-22.9967
0
LINE
8
BLACK
6
CONTINUOUS
10
96.7414
20
-22.9967
11
95.1905
21
-22.6895
0
LINE
8
BLACK
6
CONTINUOUS
10
95.1905
20
-22.6895
11
93.633
21
-22.418
0
LINE
8
BLACK
6
CONTINUOUS
10
93.633
20
-22.418
11
92.0697
21
-22.1824
0
LINE
8
BLACK
6
CONTINUOUS
10
92.0697
20
-22.1824
11
90.5013
21
-21.9828
0
LINE
8
BLACK
6
CONTINUOUS
10
90.5013
20
-21.9828
11
88.9288
21
-21.8194
0
LINE
8
BLACK
6
CONTINUOUS
10
88.9288
20
-21.8194
11
87.3529
21
-21.6922
0
LINE
8
BLACK
6
CONTINUOUS
10
87.3529
20
-21.6922
11
85.7746
21
-21.6013
0
LINE
8
BLACK
6
CONTINUOUS
10
85.7746
20
-21.6013
11
84.1945
21
-21.5468
0
LINE
8
BLACK
6
CONTINUOUS
10
84.1945
20
-21.5468
11
82.6243
21
-21.5287
0
LINE
8
BLACK
6
CONTINUOUS
10
82.6243
20
-21.5287
11
82.6224
21
-21.5295
0
LINE
8
BLACK
6
CONTINUOUS
10
82.6224
20
-21.5295
11
82.6136
21
-21.5331
0
LINE
8
BLACK
6
CONTINUOUS
10
82.6136
20
-21.5331
11
82.6136
21
-21.5331
0
LINE
8
BLACK
6
CONTINUOUS
10
82.6136
20
-21.5331
11
82.6136
21
-21.5331
0
LINE
8
BLACK
6
CONTINUOUS
10
82.6136
20
-21.5331
11
78.4122
21
-21.5277
0
LINE
8
BLACK
6
CONTINUOUS
10
78.4122
20
-21.5277
11
78.4043
21
-21.5244
0
LINE
8
BLACK
6
CONTINUOUS
10
78.4043
20
-21.5244
11
78.4034
21
-21.5241
0
LINE
8
BLACK
6
CONTINUOUS
10
78.4034
20
-21.5241
11
76.1584
21
-21.7288
0
LINE
8
BLACK
6
CONTINUOUS
10
76.1584
20
-21.7288
11
73.9064
21
-21.9698
0
LINE
8
BLACK
6
CONTINUOUS
10
73.9064
20
-21.9698
11
71.6585
21
-22.2463
0
LINE
8
BLACK
6
CONTINUOUS
10
71.6585
20
-22.2463
11
69.4152
21
-22.5581
0
LINE
8
BLACK
6
CONTINUOUS
10
69.4152
20
-22.5581
11
67.1771
21
-22.9051
0
LINE
8
BLACK
6
CONTINUOUS
10
67.1771
20
-22.9051
11
64.9448
21
-23.2872
0
LINE
8
BLACK
6
CONTINUOUS
10
64.9448
20
-23.2872
11
62.7187
21
-23.7045
0
LINE
8
BLACK
6
CONTINUOUS
10
62.7187
20
-23.7045
11
60.4994
21
-24.1567
0
LINE
8
BLACK
6
CONTINUOUS
10
60.4994
20
-24.1567
11
58.2876
21
-24.6437
0
LINE
8
BLACK
6
CONTINUOUS
10
58.2876
20
-24.6437
11
56.0836
21
-25.1654
0
LINE
8
BLACK
6
CONTINUOUS
10
56.0836
20
-25.1654
11
53.8882
21
-25.7218
0
LINE
8
BLACK
6
CONTINUOUS
10
53.8882
20
-25.7218
11
51.7017
21
-26.3126
0
LINE
8
BLACK
6
CONTINUOUS
10
51.7017
20
-26.3126
11
49.5249
21
-26.9377
0
LINE
8
BLACK
6
CONTINUOUS
10
49.5249
20
-26.9377
11
47.3581
21
-27.597
0
LINE
8
BLACK
6
CONTINUOUS
10
47.3581
20
-27.597
11
45.202
21
-28.2903
0
LINE
8
BLACK
6
CONTINUOUS
10
45.202
20
-28.2903
11
43.057
21
-29.0174
0
LINE
8
BLACK
6
CONTINUOUS
10
43.057
20
-29.0174
11
40.9337
21
-29.7746
0
LINE
8
BLACK
6
CONTINUOUS
10
40.9337
20
-29.7746
11
40.933
21
-29.7752
0
LINE
8
BLACK
6
CONTINUOUS
10
40.933
20
-29.7752
11
40.9272
21
-29.7816
0
LINE
8
BLACK
6
CONTINUOUS
10
40.9272
20
-29.7816
11
40.9261
21
-29.7816
0
LINE
8
BLACK
6
CONTINUOUS
10
40.9261
20
-29.7816
11
40.9253
21
-29.7824
0
LINE
8
BLACK
6
CONTINUOUS
10
40.9253
20
-29.7824
11
40.9197
21
-29.7821
0
LINE
8
BLACK
6
CONTINUOUS
10
40.9197
20
-29.7821
11
40.8068
21
-29.8481
0
LINE
8
BLACK
6
CONTINUOUS
10
40.8068
20
-29.8481
11
40.7031
21
-29.9387
0
LINE
8
BLACK
6
CONTINUOUS
10
40.7031
20
-29.9387
11
40.6182
21
-30.0473
0
LINE
8
BLACK
6
CONTINUOUS
10
40.6182
20
-30.0473
11
40.5553
21
-30.17
0
LINE
8
BLACK
6
CONTINUOUS
10
40.5553
20
-30.17
11
40.5167
21
-30.3022
0
LINE
8
BLACK
6
CONTINUOUS
10
40.5167
20
-30.3022
11
40.5043
21
-30.4329
0
LINE
8
BLACK
6
CONTINUOUS
10
40.5043
20
-30.4329
11
40.507
21
-30.4394
0
LINE
8
BLACK
6
CONTINUOUS
10
40.507
20
-30.4394
11
40.507
21
-87.63
0
LINE
8
BLACK
6
CONTINUOUS
10
40.507
20
-87.63
11
40.5068
21
-87.6304
0
LINE
8
BLACK
6
CONTINUOUS
10
40.5068
20
-87.6304
11
40.507
21
-87.6309
0
LINE
8
BLACK
6
CONTINUOUS
10
40.507
20
-87.6309
11
40.507
21
-87.6309
0
LINE
8
BLACK
6
CONTINUOUS
10
40.507
20
-87.6309
11
40.4809
21
-87.8917
0
LINE
8
BLACK
6
CONTINUOUS
10
40.4809
20
-87.8917
11
40.4214
21
-88.1469
0
LINE
8
BLACK
6
CONTINUOUS
10
40.4214
20
-88.1469
11
40.3294
21
-88.3923
0
LINE
8
BLACK
6
CONTINUOUS
10
40.3294
20
-88.3923
11
40.2065
21
-88.6238
0
LINE
8
BLACK
6
CONTINUOUS
10
40.2065
20
-88.6238
11
40.0547
21
-88.8375
0
LINE
8
BLACK
6
CONTINUOUS
10
40.0547
20
-88.8375
11
39.8767
21
-89.0299
0
LINE
8
BLACK
6
CONTINUOUS
10
39.8767
20
-89.0299
11
39.8539
21
-89.0489
0
LINE
8
BLACK
6
CONTINUOUS
10
39.8539
20
-89.0489
11
40.3447
21
-88.7655
0
LINE
8
BLACK
6
CONTINUOUS
10
40.3447
20
-88.7655
11
40.3447
21
-88.7655
0
LINE
8
BLACK
6
CONTINUOUS
10
40.3447
20
-88.7655
11
40.3447
21
-88.7655
0
LINE
8
BLACK
6
CONTINUOUS
10
40.3447
20
-88.7655
11
40.4483
21
-88.7203
0
LINE
8
BLACK
6
CONTINUOUS
10
40.4483
20
-88.7203
11
40.5594
21
-88.6992
0
LINE
8
BLACK
6
CONTINUOUS
10
40.5594
20
-88.6992
11
40.6724
21
-88.7035
0
LINE
8
BLACK
6
CONTINUOUS
10
40.6724
20
-88.7035
11
40.7817
21
-88.7327
0
LINE
8
BLACK
6
CONTINUOUS
10
40.7817
20
-88.7327
11
40.8816
21
-88.7856
0
LINE
8
BLACK
6
CONTINUOUS
10
40.8816
20
-88.7856
11
40.9674
21
-88.8593
0
LINE
8
BLACK
6
CONTINUOUS
10
40.9674
20
-88.8593
11
41.0345
21
-88.9503
0
LINE
8
BLACK
6
CONTINUOUS
10
41.0345
20
-88.9503
11
41.0345
21
-88.9503
0
LINE
8
BLACK
6
CONTINUOUS
10
41.0345
20
-88.9503
11
41.0345
21
-88.9503
0
LINE
8
BLACK
6
CONTINUOUS
10
41.0345
20
-88.9503
11
47.5345
21
-100.209
0
LINE
8
BLACK
6
CONTINUOUS
10
47.5345
20
-100.209
11
47.5345
21
-100.209
0
LINE
8
BLACK
6
CONTINUOUS
10
47.5345
20
-100.209
11
47.5345
21
-100.209
0
LINE
8
BLACK
6
CONTINUOUS
10
47.5345
20
-100.209
11
47.5797
21
-100.312
0
LINE
8
BLACK
6
CONTINUOUS
10
47.5797
20
-100.312
11
47.6008
21
-100.423
0
LINE
8
BLACK
6
CONTINUOUS
10
47.6008
20
-100.423
11
47.5965
21
-100.536
0
LINE
8
BLACK
6
CONTINUOUS
10
47.5965
20
-100.536
11
47.5673
21
-100.646
0
LINE
8
BLACK
6
CONTINUOUS
10
47.5673
20
-100.646
11
47.5144
21
-100.746
0
LINE
8
BLACK
6
CONTINUOUS
10
47.5144
20
-100.746
11
47.4407
21
-100.831
0
LINE
8
BLACK
6
CONTINUOUS
10
47.4407
20
-100.831
11
47.3497
21
-100.899
0
LINE
8
BLACK
6
CONTINUOUS
10
47.3497
20
-100.899
11
47.3497
21
-100.899
0
LINE
8
BLACK
6
CONTINUOUS
10
47.3497
20
-100.899
11
47.3497
21
-100.899
0
LINE
8
BLACK
6
CONTINUOUS
10
47.3497
20
-100.899
11
36.0868
21
-107.391
0
LINE
8
BLACK
6
CONTINUOUS
10
36.0868
20
-107.391
11
36.0868
21
-107.391
0
LINE
8
BLACK
6
CONTINUOUS
10
36.0868
20
-107.391
11
36.0868
21
-107.391
0
LINE
8
BLACK
6
CONTINUOUS
10
36.0868
20
-107.391
11
35.9831
21
-107.436
0
LINE
8
BLACK
6
CONTINUOUS
10
35.9831
20
-107.436
11
35.872
21
-107.457
0
LINE
8
BLACK
6
CONTINUOUS
10
35.872
20
-107.457
11
35.759
21
-107.453
0
LINE
8
BLACK
6
CONTINUOUS
10
35.759
20
-107.453
11
35.6498
21
-107.423
0
LINE
8
BLACK
6
CONTINUOUS
10
35.6498
20
-107.423
11
35.5498
21
-107.371
0
LINE
8
BLACK
6
CONTINUOUS
10
35.5498
20
-107.371
11
35.4641
21
-107.297
0
LINE
8
BLACK
6
CONTINUOUS
10
35.4641
20
-107.297
11
35.397
21
-107.206
0
LINE
8
BLACK
6
CONTINUOUS
10
35.397
20
-107.206
11
35.3969
21
-107.206
0
LINE
8
BLACK
6
CONTINUOUS
10
35.3969
20
-107.206
11
35.3969
21
-107.206
0
LINE
8
BLACK
6
CONTINUOUS
10
35.3969
20
-107.206
11
28.9015
21
-95.9553
0
LINE
8
BLACK
6
CONTINUOUS
10
28.9015
20
-95.9553
11
28.9015
21
-95.9553
0
LINE
8
BLACK
6
CONTINUOUS
10
28.9015
20
-95.9553
11
28.9015
21
-95.9553
0
LINE
8
BLACK
6
CONTINUOUS
10
28.9015
20
-95.9553
11
28.8563
21
-95.8517
0
LINE
8
BLACK
6
CONTINUOUS
10
28.8563
20
-95.8517
11
28.8352
21
-95.7406
0
LINE
8
BLACK
6
CONTINUOUS
10
28.8352
20
-95.7406
11
28.8395
21
-95.6276
0
LINE
8
BLACK
6
CONTINUOUS
10
28.8395
20
-95.6276
11
28.8687
21
-95.5183
0
LINE
8
BLACK
6
CONTINUOUS
10
28.8687
20
-95.5183
11
28.9216
21
-95.4184
0
LINE
8
BLACK
6
CONTINUOUS
10
28.9216
20
-95.4184
11
28.9953
21
-95.3326
0
LINE
8
BLACK
6
CONTINUOUS
10
28.9953
20
-95.3326
11
29.0863
21
-95.2655
0
LINE
8
BLACK
6
CONTINUOUS
10
29.0863
20
-95.2655
11
29.0863
21
-95.2655
0
LINE
8
BLACK
6
CONTINUOUS
10
29.0863
20
-95.2655
11
29.0863
21
-95.2655
0
LINE
8
BLACK
6
CONTINUOUS
10
29.0863
20
-95.2655
11
39.0956
21
-89.4866
0
LINE
8
BLACK
6
CONTINUOUS
10
39.0956
20
-89.4866
11
38.9664
21
-89.5275
0
LINE
8
BLACK
6
CONTINUOUS
10
38.9664
20
-89.5275
11
38.7084
21
-89.5735
0
LINE
8
BLACK
6
CONTINUOUS
10
38.7084
20
-89.5735
11
38.447
21
-89.5859
0
LINE
8
BLACK
6
CONTINUOUS
10
38.447
20
-89.5859
11
38.447
21
-89.5859
0
LINE
8
BLACK
6
CONTINUOUS
10
38.447
20
-89.5859
11
25.781
21
-89.5671
0
LINE
8
BLACK
6
CONTINUOUS
10
25.781
20
-89.5671
11
25.7729
21
-89.5637
0
LINE
8
BLACK
6
CONTINUOUS
10
25.7729
20
-89.5637
11
25.5929
21
-89.579
0
LINE
8
BLACK
6
CONTINUOUS
10
25.5929
20
-89.579
11
25.4102
21
-89.6265
0
LINE
8
BLACK
6
CONTINUOUS
10
25.4102
20
-89.6265
11
25.2381
21
-89.7042
0
LINE
8
BLACK
6
CONTINUOUS
10
25.2381
20
-89.7042
11
25.0815
21
-89.8098
0
LINE
8
BLACK
6
CONTINUOUS
10
25.0815
20
-89.8098
11
24.9451
21
-89.9402
0
LINE
8
BLACK
6
CONTINUOUS
10
24.9451
20
-89.9402
11
24.8326
21
-90.0918
0
LINE
8
BLACK
6
CONTINUOUS
10
24.8326
20
-90.0918
11
24.7473
21
-90.2603
0
LINE
8
BLACK
6
CONTINUOUS
10
24.7473
20
-90.2603
11
24.6916
21
-90.4407
0
LINE
8
BLACK
6
CONTINUOUS
10
24.6916
20
-90.4407
11
24.6672
21
-90.6279
0
LINE
8
BLACK
6
CONTINUOUS
10
24.6672
20
-90.6279
11
24.6747
21
-90.8165
0
LINE
8
BLACK
6
CONTINUOUS
10
24.6747
20
-90.8165
11
24.7139
21
-91.0012
0
LINE
8
BLACK
6
CONTINUOUS
10
24.7139
20
-91.0012
11
24.7807
21
-91.169
0
LINE
8
BLACK
6
CONTINUOUS
10
24.7807
20
-91.169
11
24.7867
21
-91.1736
0
LINE
8
BLACK
6
CONTINUOUS
10
24.7867
20
-91.1736
11
34.0557
21
-107.439
0
LINE
8
BLACK
6
CONTINUOUS
10
34.0557
20
-107.439
11
34.0568
21
-107.447
0
LINE
8
BLACK
6
CONTINUOUS
10
34.0568
20
-107.447
11
34.2026
21
-107.647
0
LINE
8
BLACK
6
CONTINUOUS
10
34.2026
20
-107.647
11
34.3795
21
-107.833
0
LINE
8
BLACK
6
CONTINUOUS
10
34.3795
20
-107.833
11
34.5793
21
-107.993
0
LINE
8
BLACK
6
CONTINUOUS
10
34.5793
20
-107.993
11
34.7985
21
-108.126
0
LINE
8
BLACK
6
CONTINUOUS
10
34.7985
20
-108.126
11
35.0332
21
-108.229
0
LINE
8
BLACK
6
CONTINUOUS
10
35.0332
20
-108.229
11
35.2795
21
-108.301
0
LINE
8
BLACK
6
CONTINUOUS
10
35.2795
20
-108.301
11
35.5329
21
-108.339
0
LINE
8
BLACK
6
CONTINUOUS
10
35.5329
20
-108.339
11
35.7892
21
-108.344
0
LINE
8
BLACK
6
CONTINUOUS
10
35.7892
20
-108.344
11
36.0439
21
-108.314
0
LINE
8
BLACK
6
CONTINUOUS
10
36.0439
20
-108.314
11
36.2926
21
-108.252
0
LINE
8
BLACK
6
CONTINUOUS
10
36.2926
20
-108.252
11
36.5309
21
-108.158
0
LINE
8
BLACK
6
CONTINUOUS
10
36.5309
20
-108.158
11
36.7471
21
-108.037
0
LINE
8
BLACK
6
CONTINUOUS
10
36.7471
20
-108.037
11
36.7472
21
-108.037
0
LINE
8
BLACK
6
CONTINUOUS
10
36.7472
20
-108.037
11
36.7524
21
-108.029
0
LINE
8
BLACK
6
CONTINUOUS
10
36.7524
20
-108.029
11
36.7529
21
-108.029
0
LINE
8
BLACK
6
CONTINUOUS
10
36.7529
20
-108.029
11
36.7532
21
-108.029
0
LINE
8
BLACK
6
CONTINUOUS
10
36.7532
20
-108.029
11
36.7532
21
-108.029
0
LINE
8
BLACK
6
CONTINUOUS
10
36.7532
20
-108.029
11
38.2009
21
-107.181
0
LINE
8
BLACK
6
CONTINUOUS
10
38.2009
20
-107.181
11
39.6648
21
-106.362
0
LINE
8
BLACK
6
CONTINUOUS
10
39.6648
20
-106.362
11
41.1443
21
-105.571
0
LINE
8
BLACK
6
CONTINUOUS
10
41.1443
20
-105.571
11
42.639
21
-104.809
0
LINE
8
BLACK
6
CONTINUOUS
10
42.639
20
-104.809
11
44.1481
21
-104.077
0
LINE
8
BLACK
6
CONTINUOUS
10
44.1481
20
-104.077
11
45.6712
21
-103.374
0
LINE
8
BLACK
6
CONTINUOUS
10
45.6712
20
-103.374
11
47.2077
21
-102.701
0
LINE
8
BLACK
6
CONTINUOUS
10
47.2077
20
-102.701
11
48.757
21
-102.057
0
LINE
8
BLACK
6
CONTINUOUS
10
48.757
20
-102.057
11
50.3185
21
-101.444
0
LINE
8
BLACK
6
CONTINUOUS
10
50.3185
20
-101.444
11
51.8916
21
-100.862
0
LINE
8
BLACK
6
CONTINUOUS
10
51.8916
20
-100.862
11
53.4757
21
-100.31
0
LINE
8
BLACK
6
CONTINUOUS
10
53.4757
20
-100.31
11
55.0703
21
-99.7885
0
LINE
8
BLACK
6
CONTINUOUS
10
55.0703
20
-99.7885
11
56.6747
21
-99.2985
0
LINE
8
BLACK
6
CONTINUOUS
10
56.6747
20
-99.2985
11
58.2883
21
-98.8398
0
LINE
8
BLACK
6
CONTINUOUS
10
58.2883
20
-98.8398
11
58.2883
21
-98.8398
0
LINE
8
BLACK
6
CONTINUOUS
10
58.2883
20
-98.8398
11
58.289
21
-98.8399
0
LINE
8
BLACK
6
CONTINUOUS
10
58.289
20
-98.8399
11
58.2895
21
-98.8395
0
LINE
8
BLACK
6
CONTINUOUS
10
58.2895
20
-98.8395
11
58.2895
21
-98.8395
0
LINE
8
BLACK
6
CONTINUOUS
10
58.2895
20
-98.8395
11
61.6727
21
-98.1185
0
LINE
8
BLACK
6
CONTINUOUS
10
61.6727
20
-98.1185
11
65.0635
21
-97.4336
0
LINE
8
BLACK
6
CONTINUOUS
10
65.0635
20
-97.4336
11
68.4613
21
-96.7849
0
LINE
8
BLACK
6
CONTINUOUS
10
68.4613
20
-96.7849
11
71.8659
21
-96.1725
0
LINE
8
BLACK
6
CONTINUOUS
10
71.8659
20
-96.1725
11
75.2768
21
-95.5966
0
LINE
8
BLACK
6
CONTINUOUS
10
75.2768
20
-95.5966
11
78.6936
21
-95.0571
0
LINE
8
BLACK
6
CONTINUOUS
10
78.6936
20
-95.0571
11
82.1161
21
-94.5541
0
LINE
8
BLACK
6
CONTINUOUS
10
82.1161
20
-94.5541
11
85.5437
21
-94.0876
0
LINE
8
BLACK
6
CONTINUOUS
10
85.5437
20
-94.0876
11
88.9761
21
-93.6578
0
LINE
8
BLACK
6
CONTINUOUS
10
88.9761
20
-93.6578
11
92.4128
21
-93.2647
0
LINE
8
BLACK
6
CONTINUOUS
10
92.4128
20
-93.2647
11
95.8536
21
-92.9083
0
LINE
8
BLACK
6
CONTINUOUS
10
95.8536
20
-92.9083
11
99.298
21
-92.5886
0
LINE
8
BLACK
6
CONTINUOUS
10
99.298
20
-92.5886
11
102.746
21
-92.3058
0
LINE
8
BLACK
6
CONTINUOUS
10
102.746
20
-92.3058
11
106.196
21
-92.0597
0
LINE
8
BLACK
6
CONTINUOUS
10
106.196
20
-92.0597
11
109.649
21
-91.8505
0
LINE
8
BLACK
6
CONTINUOUS
10
109.649
20
-91.8505
11
113.104
21
-91.6782
0
LINE
8
BLACK
6
CONTINUOUS
10
113.104
20
-91.6782
11
116.56
21
-91.5428
0
LINE
8
BLACK
6
CONTINUOUS
10
116.56
20
-91.5428
11
120.018
21
-91.4443
0
LINE
8
BLACK
6
CONTINUOUS
10
120.018
20
-91.4443
11
123.477
21
-91.3828
0
LINE
8
BLACK
6
CONTINUOUS
10
123.477
20
-91.3828
11
126.936
21
-91.3581
0
LINE
8
BLACK
6
CONTINUOUS
10
126.936
20
-91.3581
11
126.936
21
-91.3581
0
LINE
8
BLACK
6
CONTINUOUS
10
126.936
20
-91.3581
11
126.936
21
-91.3583
0
LINE
8
BLACK
6
CONTINUOUS
10
126.936
20
-91.3583
11
126.937
21
-91.3581
0
LINE
8
BLACK
6
CONTINUOUS
10
126.937
20
-91.3581
11
126.945
21
-91.3619
0
LINE
8
BLACK
6
CONTINUOUS
10
126.945
20
-91.3619
11
127.186
21
-91.3538
0
LINE
8
BLACK
6
CONTINUOUS
10
127.186
20
-91.3538
11
127.433
21
-91.3137
0
LINE
8
BLACK
6
CONTINUOUS
10
127.433
20
-91.3137
11
127.672
21
-91.2428
0
LINE
8
BLACK
6
CONTINUOUS
10
127.672
20
-91.2428
11
127.901
21
-91.142
0
LINE
8
BLACK
6
CONTINUOUS
10
127.901
20
-91.142
11
128.115
21
-91.013
0
LINE
8
BLACK
6
CONTINUOUS
10
128.115
20
-91.013
11
128.311
21
-90.8579
0
LINE
8
BLACK
6
CONTINUOUS
10
128.311
20
-90.8579
11
128.485
21
-90.6792
0
LINE
8
BLACK
6
CONTINUOUS
10
128.485
20
-90.6792
11
128.636
21
-90.4798
0
LINE
8
BLACK
6
CONTINUOUS
10
128.636
20
-90.4798
11
128.76
21
-90.2629
0
LINE
8
BLACK
6
CONTINUOUS
10
128.76
20
-90.2629
11
128.855
21
-90.032
0
LINE
8
BLACK
6
CONTINUOUS
10
128.855
20
-90.032
11
128.92
21
-89.7909
0
LINE
8
BLACK
6
CONTINUOUS
10
128.92
20
-89.7909
11
128.953
21
-89.552
0
LINE
8
BLACK
6
CONTINUOUS
10
128.953
20
-89.552
11
128.951
21
-89.5451
0
LINE
8
BLACK
6
CONTINUOUS
10
128.951
20
-89.5451
11
128.935
21
-77.724
0
LINE
8
BLACK
6
CONTINUOUS
10
128.935
20
-77.724
11
128.935
21
-77.724
0
LINE
8
BLACK
6
CONTINUOUS
10
128.935
20
-77.724
11
128.935
21
-77.724
0
LINE
8
BLACK
6
CONTINUOUS
10
128.935
20
-77.724
11
128.935
21
-48.768
0
LINE
8
BLACK
6
CONTINUOUS
10
128.935
20
-48.768
11
128.935
21
-48.7679
0
LINE
8
BLACK
6
CONTINUOUS
10
28.9102
20
-95.9503
11
35.4056
21
-107.201
0
LINE
8
BLACK
6
CONTINUOUS
10
35.4056
20
-107.201
11
35.4056
21
-107.201
0
LINE
8
BLACK
6
CONTINUOUS
10
35.4056
20
-107.201
11
35.4061
21
-107.205
0
LINE
8
BLACK
6
CONTINUOUS
10
35.4061
20
-107.205
11
35.4053
21
-107.206
0
LINE
8
BLACK
6
CONTINUOUS
10
35.4053
20
-107.206
11
35.4691
21
-107.292
0
LINE
8
BLACK
6
CONTINUOUS
10
35.4691
20
-107.292
11
35.5537
21
-107.365
0
LINE
8
BLACK
6
CONTINUOUS
10
35.5537
20
-107.365
11
35.6523
21
-107.417
0
LINE
8
BLACK
6
CONTINUOUS
10
35.6523
20
-107.417
11
35.7601
21
-107.446
0
LINE
8
BLACK
6
CONTINUOUS
10
35.7601
20
-107.446
11
35.8715
21
-107.45
0
LINE
8
BLACK
6
CONTINUOUS
10
35.8715
20
-107.45
11
35.9811
21
-107.429
0
LINE
8
BLACK
6
CONTINUOUS
10
35.9811
20
-107.429
11
36.0796
21
-107.386
0
LINE
8
BLACK
6
CONTINUOUS
10
36.0796
20
-107.386
11
36.0795
21
-107.385
0
LINE
8
BLACK
6
CONTINUOUS
10
36.0795
20
-107.385
11
36.0795
21
-107.385
0
LINE
8
BLACK
6
CONTINUOUS
10
36.0795
20
-107.385
11
36.0795
21
-107.385
0
LINE
8
BLACK
6
CONTINUOUS
10
36.0795
20
-107.385
11
36.08
21
-107.384
0
LINE
8
BLACK
6
CONTINUOUS
10
36.08
20
-107.384
11
36.0818
21
-107.382
0
LINE
8
BLACK
6
CONTINUOUS
10
36.0818
20
-107.382
11
36.0818
21
-107.382
0
LINE
8
BLACK
6
CONTINUOUS
10
36.0818
20
-107.382
11
47.3447
21
-100.89
0
LINE
8
BLACK
6
CONTINUOUS
10
47.3447
20
-100.89
11
47.3447
21
-100.89
0
LINE
8
BLACK
6
CONTINUOUS
10
47.3447
20
-100.89
11
47.3485
21
-100.889
0
LINE
8
BLACK
6
CONTINUOUS
10
47.3485
20
-100.889
11
47.3485
21
-100.889
0
LINE
8
BLACK
6
CONTINUOUS
10
47.3485
20
-100.889
11
47.3485
21
-100.889
0
LINE
8
BLACK
6
CONTINUOUS
10
47.3485
20
-100.889
11
47.3495
21
-100.89
0
LINE
8
BLACK
6
CONTINUOUS
10
47.3495
20
-100.89
11
47.436
21
-100.826
0
LINE
8
BLACK
6
CONTINUOUS
10
47.436
20
-100.826
11
47.5087
21
-100.742
0
LINE
8
BLACK
6
CONTINUOUS
10
47.5087
20
-100.742
11
47.5609
21
-100.643
0
LINE
8
BLACK
6
CONTINUOUS
10
47.5609
20
-100.643
11
47.5897
21
-100.535
0
LINE
8
BLACK
6
CONTINUOUS
10
47.5897
20
-100.535
11
47.5939
21
-100.424
0
LINE
8
BLACK
6
CONTINUOUS
10
47.5939
20
-100.424
11
47.5732
21
-100.314
0
LINE
8
BLACK
6
CONTINUOUS
10
47.5732
20
-100.314
11
47.5302
21
-100.216
0
LINE
8
BLACK
6
CONTINUOUS
10
47.5302
20
-100.216
11
47.5289
21
-100.216
0
LINE
8
BLACK
6
CONTINUOUS
10
47.5289
20
-100.216
11
47.5258
21
-100.214
0
LINE
8
BLACK
6
CONTINUOUS
10
47.5258
20
-100.214
11
47.5258
21
-100.214
0
LINE
8
BLACK
6
CONTINUOUS
10
47.5258
20
-100.214
11
41.0258
21
-88.9553
0
LINE
8
BLACK
6
CONTINUOUS
10
41.0258
20
-88.9553
11
41.0258
21
-88.9553
0
LINE
8
BLACK
6
CONTINUOUS
10
41.0258
20
-88.9553
11
41.0253
21
-88.9515
0
LINE
8
BLACK
6
CONTINUOUS
10
41.0253
20
-88.9515
11
41.0261
21
-88.9505
0
LINE
8
BLACK
6
CONTINUOUS
10
41.0261
20
-88.9505
11
40.9623
21
-88.864
0
LINE
8
BLACK
6
CONTINUOUS
10
40.9623
20
-88.864
11
40.8778
21
-88.7913
0
LINE
8
BLACK
6
CONTINUOUS
10
40.8778
20
-88.7913
11
40.7792
21
-88.7391
0
LINE
8
BLACK
6
CONTINUOUS
10
40.7792
20
-88.7391
11
40.6714
21
-88.7103
0
LINE
8
BLACK
6
CONTINUOUS
10
40.6714
20
-88.7103
11
40.5599
21
-88.7061
0
LINE
8
BLACK
6
CONTINUOUS
10
40.5599
20
-88.7061
11
40.4503
21
-88.7268
0
LINE
8
BLACK
6
CONTINUOUS
10
40.4503
20
-88.7268
11
40.3518
21
-88.7698
0
LINE
8
BLACK
6
CONTINUOUS
10
40.3518
20
-88.7698
11
40.352
21
-88.7711
0
LINE
8
BLACK
6
CONTINUOUS
10
40.352
20
-88.7711
11
40.3497
21
-88.7742
0
LINE
8
BLACK
6
CONTINUOUS
10
40.3497
20
-88.7742
11
40.3497
21
-88.7742
0
LINE
8
BLACK
6
CONTINUOUS
10
40.3497
20
-88.7742
11
39.8086
21
-89.0865
0
LINE
8
BLACK
6
CONTINUOUS
10
39.8086
20
-89.0865
11
39.6753
21
-89.1976
0
LINE
8
BLACK
6
CONTINUOUS
10
39.6753
20
-89.1976
11
39.4539
21
-89.3379
0
LINE
8
BLACK
6
CONTINUOUS
10
39.4539
20
-89.3379
11
39.2163
21
-89.4485
0
LINE
8
BLACK
6
CONTINUOUS
10
39.2163
20
-89.4485
11
39.1398
21
-89.4727
0
LINE
8
BLACK
6
CONTINUOUS
10
39.1398
20
-89.4727
11
29.0913
21
-95.2742
0
LINE
8
BLACK
6
CONTINUOUS
10
29.0913
20
-95.2742
11
29.0913
21
-95.2742
0
LINE
8
BLACK
6
CONTINUOUS
10
29.0913
20
-95.2742
11
29.0875
21
-95.2747
0
LINE
8
BLACK
6
CONTINUOUS
10
29.0875
20
-95.2747
11
29.0865
21
-95.2739
0
LINE
8
BLACK
6
CONTINUOUS
10
29.0865
20
-95.2739
11
29
21
-95.3377
0
LINE
8
BLACK
6
CONTINUOUS
10
29
20
-95.3377
11
28.9273
21
-95.4222
0
LINE
8
BLACK
6
CONTINUOUS
10
28.9273
20
-95.4222
11
28.8751
21
-95.5208
0
LINE
8
BLACK
6
CONTINUOUS
10
28.8751
20
-95.5208
11
28.8463
21
-95.6286
0
LINE
8
BLACK
6
CONTINUOUS
10
28.8463
20
-95.6286
11
28.8421
21
-95.7401
0
LINE
8
BLACK
6
CONTINUOUS
10
28.8421
20
-95.7401
11
28.8628
21
-95.8497
0
LINE
8
BLACK
6
CONTINUOUS
10
28.8628
20
-95.8497
11
28.9058
21
-95.9482
0
LINE
8
BLACK
6
CONTINUOUS
10
28.9058
20
-95.9482
11
28.9071
21
-95.948
0
LINE
8
BLACK
6
CONTINUOUS
10
28.9071
20
-95.948
11
28.9102
21
-95.9503
0
LINE
8
BLACK
6
CONTINUOUS
10
28.9102
20
-95.9503
11
28.9102
21
-95.9503
0
LINE
8
BLACK
6
CONTINUOUS
10
61.4681
20
-81.625
11
61.5761
21
-81.6583
0
LINE
8
BLACK
6
CONTINUOUS
10
61.5761
20
-81.6583
11
61.6741
21
-81.7148
0
LINE
8
BLACK
6
CONTINUOUS
10
61.6741
20
-81.7148
11
61.757
21
-81.7918
0
LINE
8
BLACK
6
CONTINUOUS
10
61.757
20
-81.7918
11
61.8207
21
-81.8852
0
LINE
8
BLACK
6
CONTINUOUS
10
61.8207
20
-81.8852
11
61.862
21
-81.9905
0
LINE
8
BLACK
6
CONTINUOUS
10
61.862
20
-81.9905
11
65.2266
21
-94.5475
0
LINE
8
BLACK
6
CONTINUOUS
10
65.2266
20
-94.5475
11
65.2266
21
-94.5475
0
LINE
8
BLACK
6
CONTINUOUS
10
65.2266
20
-94.5475
11
65.2435
21
-94.6593
0
LINE
8
BLACK
6
CONTINUOUS
10
65.2435
20
-94.6593
11
65.235
21
-94.7721
0
LINE
8
BLACK
6
CONTINUOUS
10
65.235
20
-94.7721
11
65.2017
21
-94.8801
0
LINE
8
BLACK
6
CONTINUOUS
10
65.2017
20
-94.8801
11
65.1452
21
-94.9781
0
LINE
8
BLACK
6
CONTINUOUS
10
65.1452
20
-94.9781
11
65.0682
21
-95.061
0
LINE
8
BLACK
6
CONTINUOUS
10
65.0682
20
-95.061
11
64.9748
21
-95.1247
0
LINE
8
BLACK
6
CONTINUOUS
10
64.9748
20
-95.1247
11
64.8695
21
-95.166
0
LINE
8
BLACK
6
CONTINUOUS
10
64.8695
20
-95.166
11
64.8695
21
-95.166
0
LINE
8
BLACK
6
CONTINUOUS
10
64.8695
20
-95.166
11
64.8695
21
-95.166
0
LINE
8
BLACK
6
CONTINUOUS
10
64.8695
20
-95.166
11
52.3102
21
-98.5219
0
LINE
8
BLACK
6
CONTINUOUS
10
52.3102
20
-98.5219
11
52.3102
21
-98.5219
0
LINE
8
BLACK
6
CONTINUOUS
10
52.3102
20
-98.5219
11
52.1983
21
-98.5387
0
LINE
8
BLACK
6
CONTINUOUS
10
52.1983
20
-98.5387
11
52.0856
21
-98.5303
0
LINE
8
BLACK
6
CONTINUOUS
10
52.0856
20
-98.5303
11
51.9775
21
-98.4969
0
LINE
8
BLACK
6
CONTINUOUS
10
51.9775
20
-98.4969
11
51.8796
21
-98.4404
0
LINE
8
BLACK
6
CONTINUOUS
10
51.8796
20
-98.4404
11
51.7967
21
-98.3635
0
LINE
8
BLACK
6
CONTINUOUS
10
51.7967
20
-98.3635
11
51.733
21
-98.27
0
LINE
8
BLACK
6
CONTINUOUS
10
51.733
20
-98.27
11
51.6917
21
-98.1648
0
LINE
8
BLACK
6
CONTINUOUS
10
51.6917
20
-98.1648
11
48.3294
21
-85.6165
0
LINE
8
BLACK
6
CONTINUOUS
10
48.3294
20
-85.6165
11
48.3125
21
-85.5047
0
LINE
8
BLACK
6
CONTINUOUS
10
48.3125
20
-85.5047
11
48.321
21
-85.3919
0
LINE
8
BLACK
6
CONTINUOUS
10
48.321
20
-85.3919
11
48.3543
21
-85.2839
0
LINE
8
BLACK
6
CONTINUOUS
10
48.3543
20
-85.2839
11
48.4108
21
-85.1859
0
LINE
8
BLACK
6
CONTINUOUS
10
48.4108
20
-85.1859
11
48.4878
21
-85.103
0
LINE
8
BLACK
6
CONTINUOUS
10
48.4878
20
-85.103
11
48.5812
21
-85.0393
0
LINE
8
BLACK
6
CONTINUOUS
10
48.5812
20
-85.0393
11
48.6865
21
-84.998
0
LINE
8
BLACK
6
CONTINUOUS
10
48.6865
20
-84.998
11
61.2435
21
-81.6334
0
LINE
8
BLACK
6
CONTINUOUS
10
61.2435
20
-81.6334
11
61.2435
21
-81.6334
0
LINE
8
BLACK
6
CONTINUOUS
10
61.2435
20
-81.6334
11
61.3553
21
-81.6165
0
LINE
8
BLACK
6
CONTINUOUS
10
61.3553
20
-81.6165
11
61.4681
21
-81.625
0
LINE
8
BLACK
6
CONTINUOUS
10
64.867
20
-95.1563
11
64.867
21
-95.1563
0
LINE
8
BLACK
6
CONTINUOUS
10
64.867
20
-95.1563
11
64.867
21
-95.1563
0
LINE
8
BLACK
6
CONTINUOUS
10
64.867
20
-95.1563
11
64.8677
21
-95.1564
0
LINE
8
BLACK
6
CONTINUOUS
10
64.8677
20
-95.1564
11
64.8708
21
-95.1568
0
LINE
8
BLACK
6
CONTINUOUS
10
64.8708
20
-95.1568
11
64.8715
21
-95.1579
0
LINE
8
BLACK
6
CONTINUOUS
10
64.8715
20
-95.1579
11
64.9716
21
-95.1186
0
LINE
8
BLACK
6
CONTINUOUS
10
64.9716
20
-95.1186
11
65.0638
21
-95.0558
0
LINE
8
BLACK
6
CONTINUOUS
10
65.0638
20
-95.0558
11
65.1396
21
-94.974
0
LINE
8
BLACK
6
CONTINUOUS
10
65.1396
20
-94.974
11
65.1954
21
-94.8774
0
LINE
8
BLACK
6
CONTINUOUS
10
65.1954
20
-94.8774
11
65.2283
21
-94.7708
0
LINE
8
BLACK
6
CONTINUOUS
10
65.2283
20
-94.7708
11
65.2366
21
-94.6596
0
LINE
8
BLACK
6
CONTINUOUS
10
65.2366
20
-94.6596
11
65.2206
21
-94.5533
0
LINE
8
BLACK
6
CONTINUOUS
10
65.2206
20
-94.5533
11
65.2193
21
-94.5531
0
LINE
8
BLACK
6
CONTINUOUS
10
65.2193
20
-94.5531
11
65.217
21
-94.5501
0
LINE
8
BLACK
6
CONTINUOUS
10
65.217
20
-94.5501
11
61.8523
21
-81.993
0
LINE
8
BLACK
6
CONTINUOUS
10
61.8523
20
-81.993
11
61.8528
21
-81.9892
0
LINE
8
BLACK
6
CONTINUOUS
10
61.8528
20
-81.9892
11
61.8539
21
-81.9885
0
LINE
8
BLACK
6
CONTINUOUS
10
61.8539
20
-81.9885
11
61.8146
21
-81.8884
0
LINE
8
BLACK
6
CONTINUOUS
10
61.8146
20
-81.8884
11
61.7518
21
-81.7962
0
LINE
8
BLACK
6
CONTINUOUS
10
61.7518
20
-81.7962
11
61.67
21
-81.7204
0
LINE
8
BLACK
6
CONTINUOUS
10
61.67
20
-81.7204
11
61.5734
21
-81.6646
0
LINE
8
BLACK
6
CONTINUOUS
10
61.5734
20
-81.6646
11
61.4668
21
-81.6317
0
LINE
8
BLACK
6
CONTINUOUS
10
61.4668
20
-81.6317
11
61.3556
21
-81.6234
0
LINE
8
BLACK
6
CONTINUOUS
10
61.3556
20
-81.6234
11
61.2493
21
-81.6394
0
LINE
8
BLACK
6
CONTINUOUS
10
61.2493
20
-81.6394
11
61.2491
21
-81.6407
0
LINE
8
BLACK
6
CONTINUOUS
10
61.2491
20
-81.6407
11
61.2461
21
-81.643
0
LINE
8
BLACK
6
CONTINUOUS
10
61.2461
20
-81.643
11
48.689
21
-85.0077
0
LINE
8
BLACK
6
CONTINUOUS
10
48.689
20
-85.0077
11
48.6852
21
-85.0072
0
LINE
8
BLACK
6
CONTINUOUS
10
48.6852
20
-85.0072
11
48.6844
21
-85.0061
0
LINE
8
BLACK
6
CONTINUOUS
10
48.6844
20
-85.0061
11
48.5844
21
-85.0454
0
LINE
8
BLACK
6
CONTINUOUS
10
48.5844
20
-85.0454
11
48.4922
21
-85.1082
0
LINE
8
BLACK
6
CONTINUOUS
10
48.4922
20
-85.1082
11
48.4164
21
-85.19
0
LINE
8
BLACK
6
CONTINUOUS
10
48.4164
20
-85.19
11
48.3606
21
-85.2866
0
LINE
8
BLACK
6
CONTINUOUS
10
48.3606
20
-85.2866
11
48.3277
21
-85.3932
0
LINE
8
BLACK
6
CONTINUOUS
10
48.3277
20
-85.3932
11
48.3194
21
-85.5044
0
LINE
8
BLACK
6
CONTINUOUS
10
48.3194
20
-85.5044
11
48.3354
21
-85.6107
0
LINE
8
BLACK
6
CONTINUOUS
10
48.3354
20
-85.6107
11
48.3367
21
-85.6109
0
LINE
8
BLACK
6
CONTINUOUS
10
48.3367
20
-85.6109
11
48.339
21
-85.6139
0
LINE
8
BLACK
6
CONTINUOUS
10
48.339
20
-85.6139
11
51.7013
21
-98.1622
0
LINE
8
BLACK
6
CONTINUOUS
10
51.7013
20
-98.1622
11
51.7013
21
-98.1622
0
LINE
8
BLACK
6
CONTINUOUS
10
51.7013
20
-98.1622
11
51.7008
21
-98.166
0
LINE
8
BLACK
6
CONTINUOUS
10
51.7008
20
-98.166
11
51.6998
21
-98.1668
0
LINE
8
BLACK
6
CONTINUOUS
10
51.6998
20
-98.1668
11
51.7391
21
-98.2668
0
LINE
8
BLACK
6
CONTINUOUS
10
51.7391
20
-98.2668
11
51.8019
21
-98.359
0
LINE
8
BLACK
6
CONTINUOUS
10
51.8019
20
-98.359
11
51.8837
21
-98.4349
0
LINE
8
BLACK
6
CONTINUOUS
10
51.8837
20
-98.4349
11
51.9803
21
-98.4906
0
LINE
8
BLACK
6
CONTINUOUS
10
51.9803
20
-98.4906
11
52.0868
21
-98.5235
0
LINE
8
BLACK
6
CONTINUOUS
10
52.0868
20
-98.5235
11
52.1981
21
-98.5319
0
LINE
8
BLACK
6
CONTINUOUS
10
52.1981
20
-98.5319
11
52.3044
21
-98.5158
0
LINE
8
BLACK
6
CONTINUOUS
10
52.3044
20
-98.5158
11
52.3045
21
-98.5145
0
LINE
8
BLACK
6
CONTINUOUS
10
52.3045
20
-98.5145
11
52.3045
21
-98.5145
0
LINE
8
BLACK
6
CONTINUOUS
10
52.3045
20
-98.5145
11
52.3045
21
-98.5145
0
LINE
8
BLACK
6
CONTINUOUS
10
52.3045
20
-98.5145
11
52.3055
21
-98.5138
0
LINE
8
BLACK
6
CONTINUOUS
10
52.3055
20
-98.5138
11
52.3076
21
-98.5122
0
LINE
8
BLACK
6
CONTINUOUS
10
52.3076
20
-98.5122
11
52.3076
21
-98.5122
0
LINE
8
BLACK
6
CONTINUOUS
10
52.3076
20
-98.5122
11
64.867
21
-95.1563
0
LINE
8
BLACK
6
CONTINUOUS
10
114.232
20
-76.377
11
127.232
21
-76.3861
0
LINE
8
BLACK
6
CONTINUOUS
10
127.232
20
-76.3861
11
127.232
21
-76.3861
0
LINE
8
BLACK
6
CONTINUOUS
10
127.232
20
-76.3861
11
127.344
21
-76.3987
0
LINE
8
BLACK
6
CONTINUOUS
10
127.344
20
-76.3987
11
127.451
21
-76.4361
0
LINE
8
BLACK
6
CONTINUOUS
10
127.451
20
-76.4361
11
127.547
21
-76.4962
0
LINE
8
BLACK
6
CONTINUOUS
10
127.547
20
-76.4962
11
127.627
21
-76.5762
0
LINE
8
BLACK
6
CONTINUOUS
10
127.627
20
-76.5762
11
127.687
21
-76.672
0
LINE
8
BLACK
6
CONTINUOUS
10
127.687
20
-76.672
11
127.724
21
-76.7787
0
LINE
8
BLACK
6
CONTINUOUS
10
127.724
20
-76.7787
11
127.737
21
-76.8911
0
LINE
8
BLACK
6
CONTINUOUS
10
127.737
20
-76.8911
11
127.737
21
-76.8911
0
LINE
8
BLACK
6
CONTINUOUS
10
127.737
20
-76.8911
11
127.737
21
-89.882
0
LINE
8
BLACK
6
CONTINUOUS
10
127.737
20
-89.882
11
127.737
21
-89.882
0
LINE
8
BLACK
6
CONTINUOUS
10
127.737
20
-89.882
11
127.724
21
-89.9944
0
LINE
8
BLACK
6
CONTINUOUS
10
127.724
20
-89.9944
11
127.687
21
-90.1011
0
LINE
8
BLACK
6
CONTINUOUS
10
127.687
20
-90.1011
11
127.627
21
-90.1969
0
LINE
8
BLACK
6
CONTINUOUS
10
127.627
20
-90.1969
11
127.547
21
-90.2768
0
LINE
8
BLACK
6
CONTINUOUS
10
127.547
20
-90.2768
11
127.451
21
-90.337
0
LINE
8
BLACK
6
CONTINUOUS
10
127.451
20
-90.337
11
127.344
21
-90.3743
0
LINE
8
BLACK
6
CONTINUOUS
10
127.344
20
-90.3743
11
127.232
21
-90.387
0
LINE
8
BLACK
6
CONTINUOUS
10
127.232
20
-90.387
11
127.232
21
-90.387
0
LINE
8
BLACK
6
CONTINUOUS
10
127.232
20
-90.387
11
114.232
21
-90.387
0
LINE
8
BLACK
6
CONTINUOUS
10
114.232
20
-90.387
11
114.232
21
-90.387
0
LINE
8
BLACK
6
CONTINUOUS
10
114.232
20
-90.387
11
114.12
21
-90.3743
0
LINE
8
BLACK
6
CONTINUOUS
10
114.12
20
-90.3743
11
114.013
21
-90.337
0
LINE
8
BLACK
6
CONTINUOUS
10
114.013
20
-90.337
11
113.917
21
-90.2768
0
LINE
8
BLACK
6
CONTINUOUS
10
113.917
20
-90.2768
11
113.837
21
-90.1969
0
LINE
8
BLACK
6
CONTINUOUS
10
113.837
20
-90.1969
11
113.777
21
-90.1011
0
LINE
8
BLACK
6
CONTINUOUS
10
113.777
20
-90.1011
11
113.74
21
-89.9944
0
LINE
8
BLACK
6
CONTINUOUS
10
113.74
20
-89.9944
11
113.727
21
-89.882
0
LINE
8
BLACK
6
CONTINUOUS
10
113.727
20
-89.882
11
113.727
21
-89.882
0
LINE
8
BLACK
6
CONTINUOUS
10
113.727
20
-89.882
11
113.727
21
-76.882
0
LINE
8
BLACK
6
CONTINUOUS
10
113.727
20
-76.882
11
113.727
21
-76.882
0
LINE
8
BLACK
6
CONTINUOUS
10
113.727
20
-76.882
11
113.74
21
-76.7696
0
LINE
8
BLACK
6
CONTINUOUS
10
113.74
20
-76.7696
11
113.777
21
-76.6629
0
LINE
8
BLACK
6
CONTINUOUS
10
113.777
20
-76.6629
11
113.837
21
-76.5671
0
LINE
8
BLACK
6
CONTINUOUS
10
113.837
20
-76.5671
11
113.917
21
-76.4872
0
LINE
8
BLACK
6
CONTINUOUS
10
113.917
20
-76.4872
11
114.013
21
-76.427
0
LINE
8
BLACK
6
CONTINUOUS
10
114.013
20
-76.427
11
114.12
21
-76.3897
0
LINE
8
BLACK
6
CONTINUOUS
10
114.12
20
-76.3897
11
114.232
21
-76.377
0
LINE
8
BLACK
6
CONTINUOUS
10
114.232
20
-76.377
11
114.232
21
-76.377
0
LINE
8
BLACK
6
CONTINUOUS
10
114.228
20
-76.3843
11
114.121
21
-76.3964
0
LINE
8
BLACK
6
CONTINUOUS
10
114.121
20
-76.3964
11
114.016
21
-76.4332
0
LINE
8
BLACK
6
CONTINUOUS
10
114.016
20
-76.4332
11
113.921
21
-76.4925
0
LINE
8
BLACK
6
CONTINUOUS
10
113.921
20
-76.4925
11
113.843
21
-76.5714
0
LINE
8
BLACK
6
CONTINUOUS
10
113.843
20
-76.5714
11
113.783
21
-76.6659
0
LINE
8
BLACK
6
CONTINUOUS
10
113.783
20
-76.6659
11
113.746
21
-76.7712
0
LINE
8
BLACK
6
CONTINUOUS
10
113.746
20
-76.7712
11
113.734
21
-76.878
0
LINE
8
BLACK
6
CONTINUOUS
10
113.734
20
-76.878
11
113.736
21
-76.8785
0
LINE
8
BLACK
6
CONTINUOUS
10
113.736
20
-76.8785
11
113.737
21
-76.882
0
LINE
8
BLACK
6
CONTINUOUS
10
113.737
20
-76.882
11
113.737
21
-76.882
0
LINE
8
BLACK
6
CONTINUOUS
10
113.737
20
-76.882
11
113.737
21
-89.882
0
LINE
8
BLACK
6
CONTINUOUS
10
113.737
20
-89.882
11
113.737
21
-89.882
0
LINE
8
BLACK
6
CONTINUOUS
10
113.737
20
-89.882
11
113.736
21
-89.8855
0
LINE
8
BLACK
6
CONTINUOUS
10
113.736
20
-89.8855
11
113.734
21
-89.886
0
LINE
8
BLACK
6
CONTINUOUS
10
113.734
20
-89.886
11
113.746
21
-89.9928
0
LINE
8
BLACK
6
CONTINUOUS
10
113.746
20
-89.9928
11
113.783
21
-90.0981
0
LINE
8
BLACK
6
CONTINUOUS
10
113.783
20
-90.0981
11
113.843
21
-90.1926
0
LINE
8
BLACK
6
CONTINUOUS
10
113.843
20
-90.1926
11
113.921
21
-90.2715
0
LINE
8
BLACK
6
CONTINUOUS
10
113.921
20
-90.2715
11
114.016
21
-90.3308
0
LINE
8
BLACK
6
CONTINUOUS
10
114.016
20
-90.3308
11
114.121
21
-90.3676
0
LINE
8
BLACK
6
CONTINUOUS
10
114.121
20
-90.3676
11
114.228
21
-90.3797
0
LINE
8
BLACK
6
CONTINUOUS
10
114.228
20
-90.3797
11
114.228
21
-90.3785
0
LINE
8
BLACK
6
CONTINUOUS
10
114.228
20
-90.3785
11
114.232
21
-90.377
0
LINE
8
BLACK
6
CONTINUOUS
10
114.232
20
-90.377
11
114.232
21
-90.377
0
LINE
8
BLACK
6
CONTINUOUS
10
114.232
20
-90.377
11
127.232
21
-90.377
0
LINE
8
BLACK
6
CONTINUOUS
10
127.232
20
-90.377
11
127.232
21
-90.377
0
LINE
8
BLACK
6
CONTINUOUS
10
127.232
20
-90.377
11
127.236
21
-90.3785
0
LINE
8
BLACK
6
CONTINUOUS
10
127.236
20
-90.3785
11
127.236
21
-90.3797
0
LINE
8
BLACK
6
CONTINUOUS
10
127.236
20
-90.3797
11
127.343
21
-90.3676
0
LINE
8
BLACK
6
CONTINUOUS
10
127.343
20
-90.3676
11
127.448
21
-90.3308
0
LINE
8
BLACK
6
CONTINUOUS
10
127.448
20
-90.3308
11
127.543
21
-90.2715
0
LINE
8
BLACK
6
CONTINUOUS
10
127.543
20
-90.2715
11
127.621
21
-90.1926
0
LINE
8
BLACK
6
CONTINUOUS
10
127.621
20
-90.1926
11
127.681
21
-90.0981
0
LINE
8
BLACK
6
CONTINUOUS
10
127.681
20
-90.0981
11
127.718
21
-89.9928
0
LINE
8
BLACK
6
CONTINUOUS
10
127.718
20
-89.9928
11
127.73
21
-89.886
0
LINE
8
BLACK
6
CONTINUOUS
10
127.73
20
-89.886
11
127.728
21
-89.8855
0
LINE
8
BLACK
6
CONTINUOUS
10
127.728
20
-89.8855
11
127.727
21
-89.882
0
LINE
8
BLACK
6
CONTINUOUS
10
127.727
20
-89.882
11
127.727
21
-89.882
0
LINE
8
BLACK
6
CONTINUOUS
10
127.727
20
-89.882
11
127.727
21
-76.8911
0
LINE
8
BLACK
6
CONTINUOUS
10
127.727
20
-76.8911
11
127.727
21
-76.8911
0
LINE
8
BLACK
6
CONTINUOUS
10
127.727
20
-76.8911
11
127.728
21
-76.8875
0
LINE
8
BLACK
6
CONTINUOUS
10
127.728
20
-76.8875
11
127.73
21
-76.887
0
LINE
8
BLACK
6
CONTINUOUS
10
127.73
20
-76.887
11
127.718
21
-76.7802
0
LINE
8
BLACK
6
CONTINUOUS
10
127.718
20
-76.7802
11
127.681
21
-76.6749
0
LINE
8
BLACK
6
CONTINUOUS
10
127.681
20
-76.6749
11
127.621
21
-76.5805
0
LINE
8
BLACK
6
CONTINUOUS
10
127.621
20
-76.5805
11
127.543
21
-76.5016
0
LINE
8
BLACK
6
CONTINUOUS
10
127.543
20
-76.5016
11
127.448
21
-76.4423
0
LINE
8
BLACK
6
CONTINUOUS
10
127.448
20
-76.4423
11
127.343
21
-76.4054
0
LINE
8
BLACK
6
CONTINUOUS
10
127.343
20
-76.4054
11
127.236
21
-76.3934
0
LINE
8
BLACK
6
CONTINUOUS
10
127.236
20
-76.3934
11
127.236
21
-76.3946
0
LINE
8
BLACK
6
CONTINUOUS
10
127.236
20
-76.3946
11
127.236
21
-76.3946
0
LINE
8
BLACK
6
CONTINUOUS
10
127.236
20
-76.3946
11
127.236
21
-76.3946
0
LINE
8
BLACK
6
CONTINUOUS
10
127.236
20
-76.3946
11
127.235
21
-76.3949
0
LINE
8
BLACK
6
CONTINUOUS
10
127.235
20
-76.3949
11
127.232
21
-76.3961
0
LINE
8
BLACK
6
CONTINUOUS
10
127.232
20
-76.3961
11
127.232
21
-76.3961
0
LINE
8
BLACK
6
CONTINUOUS
10
127.232
20
-76.3961
11
127.232
21
-76.3961
0
LINE
8
BLACK
6
CONTINUOUS
10
127.232
20
-76.3961
11
114.232
21
-76.387
0
LINE
8
BLACK
6
CONTINUOUS
10
114.232
20
-76.387
11
114.232
21
-76.387
0
LINE
8
BLACK
6
CONTINUOUS
10
114.232
20
-76.387
11
114.232
21
-76.387
0
LINE
8
BLACK
6
CONTINUOUS
10
114.232
20
-76.387
11
114.232
21
-76.387
0
LINE
8
BLACK
6
CONTINUOUS
10
114.232
20
-76.387
11
114.231
21
-76.3868
0
LINE
8
BLACK
6
CONTINUOUS
10
114.231
20
-76.3868
11
114.228
21
-76.3855
0
LINE
8
BLACK
6
CONTINUOUS
10
114.228
20
-76.3855
11
114.228
21
-76.3855
0
LINE
8
BLACK
6
CONTINUOUS
10
114.228
20
-76.3855
11
114.228
21
-76.3843
0
LINE
8
BLACK
6
CONTINUOUS
10
55.2984
20
-65.3977
11
55.4051
21
-65.435
0
LINE
8
BLACK
6
CONTINUOUS
10
55.4051
20
-65.435
11
55.5009
21
-65.4952
0
LINE
8
BLACK
6
CONTINUOUS
10
55.5009
20
-65.4952
11
55.5808
21
-65.5751
0
LINE
8
BLACK
6
CONTINUOUS
10
55.5808
20
-65.5751
11
55.641
21
-65.6709
0
LINE
8
BLACK
6
CONTINUOUS
10
55.641
20
-65.6709
11
55.6783
21
-65.7776
0
LINE
8
BLACK
6
CONTINUOUS
10
55.6783
20
-65.7776
11
55.691
21
-65.89
0
LINE
8
BLACK
6
CONTINUOUS
10
55.691
20
-65.89
11
55.691
21
-65.89
0
LINE
8
BLACK
6
CONTINUOUS
10
55.691
20
-65.89
11
55.691
21
-78.89
0
LINE
8
BLACK
6
CONTINUOUS
10
55.691
20
-78.89
11
55.691
21
-78.89
0
LINE
8
BLACK
6
CONTINUOUS
10
55.691
20
-78.89
11
55.6783
21
-79.0024
0
LINE
8
BLACK
6
CONTINUOUS
10
55.6783
20
-79.0024
11
55.641
21
-79.1091
0
LINE
8
BLACK
6
CONTINUOUS
10
55.641
20
-79.1091
11
55.5808
21
-79.2049
0
LINE
8
BLACK
6
CONTINUOUS
10
55.5808
20
-79.2049
11
55.5009
21
-79.2848
0
LINE
8
BLACK
6
CONTINUOUS
10
55.5009
20
-79.2848
11
55.4051
21
-79.345
0
LINE
8
BLACK
6
CONTINUOUS
10
55.4051
20
-79.345
11
55.2984
21
-79.3823
0
LINE
8
BLACK
6
CONTINUOUS
10
55.2984
20
-79.3823
11
55.186
21
-79.395
0
LINE
8
BLACK
6
CONTINUOUS
10
55.186
20
-79.395
11
55.186
21
-79.395
0
LINE
8
BLACK
6
CONTINUOUS
10
55.186
20
-79.395
11
55.186
21
-79.395
0
LINE
8
BLACK
6
CONTINUOUS
10
55.186
20
-79.395
11
42.186
21
-79.3859
0
LINE
8
BLACK
6
CONTINUOUS
10
42.186
20
-79.3859
11
42.186
21
-79.3859
0
LINE
8
BLACK
6
CONTINUOUS
10
42.186
20
-79.3859
11
42.0736
21
-79.3733
0
LINE
8
BLACK
6
CONTINUOUS
10
42.0736
20
-79.3733
11
41.9669
21
-79.3359
0
LINE
8
BLACK
6
CONTINUOUS
10
41.9669
20
-79.3359
11
41.8711
21
-79.2758
0
LINE
8
BLACK
6
CONTINUOUS
10
41.8711
20
-79.2758
11
41.7912
21
-79.1958
0
LINE
8
BLACK
6
CONTINUOUS
10
41.7912
20
-79.1958
11
41.731
21
-79.1
0
LINE
8
BLACK
6
CONTINUOUS
10
41.731
20
-79.1
11
41.6937
21
-78.9933
0
LINE
8
BLACK
6
CONTINUOUS
10
41.6937
20
-78.9933
11
41.681
21
-78.8809
0
LINE
8
BLACK
6
CONTINUOUS
10
41.681
20
-78.8809
11
41.681
21
-78.8809
0
LINE
8
BLACK
6
CONTINUOUS
10
41.681
20
-78.8809
11
41.681
21
-65.89
0
LINE
8
BLACK
6
CONTINUOUS
10
41.681
20
-65.89
11
41.681
21
-65.89
0
LINE
8
BLACK
6
CONTINUOUS
10
41.681
20
-65.89
11
41.6937
21
-65.7776
0
LINE
8
BLACK
6
CONTINUOUS
10
41.6937
20
-65.7776
11
41.731
21
-65.6709
0
LINE
8
BLACK
6
CONTINUOUS
10
41.731
20
-65.6709
11
41.7912
21
-65.5751
0
LINE
8
BLACK
6
CONTINUOUS
10
41.7912
20
-65.5751
11
41.8711
21
-65.4952
0
LINE
8
BLACK
6
CONTINUOUS
10
41.8711
20
-65.4952
11
41.9669
21
-65.435
0
LINE
8
BLACK
6
CONTINUOUS
10
41.9669
20
-65.435
11
42.0736
21
-65.3977
0
LINE
8
BLACK
6
CONTINUOUS
10
42.0736
20
-65.3977
11
42.186
21
-65.385
0
LINE
8
BLACK
6
CONTINUOUS
10
42.186
20
-65.385
11
42.186
21
-65.385
0
LINE
8
BLACK
6
CONTINUOUS
10
42.186
20
-65.385
11
55.186
21
-65.385
0
LINE
8
BLACK
6
CONTINUOUS
10
55.186
20
-65.385
11
55.186
21
-65.385
0
LINE
8
BLACK
6
CONTINUOUS
10
55.186
20
-65.385
11
55.2984
21
-65.3977
0
LINE
8
BLACK
6
CONTINUOUS
10
42.1837
20
-79.3769
11
42.186
21
-79.3759
0
LINE
8
BLACK
6
CONTINUOUS
10
42.186
20
-79.3759
11
42.186
21
-79.3759
0
LINE
8
BLACK
6
CONTINUOUS
10
42.186
20
-79.3759
11
55.186
21
-79.385
0
LINE
8
BLACK
6
CONTINUOUS
10
55.186
20
-79.385
11
55.186
21
-79.385
0
LINE
8
BLACK
6
CONTINUOUS
10
55.186
20
-79.385
11
55.186
21
-79.385
0
LINE
8
BLACK
6
CONTINUOUS
10
55.186
20
-79.385
11
55.186
21
-79.385
0
LINE
8
BLACK
6
CONTINUOUS
10
55.186
20
-79.385
11
55.1866
21
-79.3852
0
LINE
8
BLACK
6
CONTINUOUS
10
55.1866
20
-79.3852
11
55.1895
21
-79.3865
0
LINE
8
BLACK
6
CONTINUOUS
10
55.1895
20
-79.3865
11
55.1895
21
-79.3865
0
LINE
8
BLACK
6
CONTINUOUS
10
55.1895
20
-79.3865
11
55.19
21
-79.3877
0
LINE
8
BLACK
6
CONTINUOUS
10
55.19
20
-79.3877
11
55.2968
21
-79.3756
0
LINE
8
BLACK
6
CONTINUOUS
10
55.2968
20
-79.3756
11
55.4021
21
-79.3388
0
LINE
8
BLACK
6
CONTINUOUS
10
55.4021
20
-79.3388
11
55.4966
21
-79.2795
0
LINE
8
BLACK
6
CONTINUOUS
10
55.4966
20
-79.2795
11
55.5755
21
-79.2006
0
LINE
8
BLACK
6
CONTINUOUS
10
55.5755
20
-79.2006
11
55.6348
21
-79.1061
0
LINE
8
BLACK
6
CONTINUOUS
10
55.6348
20
-79.1061
11
55.6716
21
-79.0008
0
LINE
8
BLACK
6
CONTINUOUS
10
55.6716
20
-79.0008
11
55.6837
21
-78.894
0
LINE
8
BLACK
6
CONTINUOUS
10
55.6837
20
-78.894
11
55.6825
21
-78.8935
0
LINE
8
BLACK
6
CONTINUOUS
10
55.6825
20
-78.8935
11
55.681
21
-78.89
0
LINE
8
BLACK
6
CONTINUOUS
10
55.681
20
-78.89
11
55.681
21
-78.89
0
LINE
8
BLACK
6
CONTINUOUS
10
55.681
20
-78.89
11
55.681
21
-65.89
0
LINE
8
BLACK
6
CONTINUOUS
10
55.681
20
-65.89
11
55.681
21
-65.89
0
LINE
8
BLACK
6
CONTINUOUS
10
55.681
20
-65.89
11
55.6825
21
-65.8865
0
LINE
8
BLACK
6
CONTINUOUS
10
55.6825
20
-65.8865
11
55.6837
21
-65.886
0
LINE
8
BLACK
6
CONTINUOUS
10
55.6837
20
-65.886
11
55.6716
21
-65.7792
0
LINE
8
BLACK
6
CONTINUOUS
10
55.6716
20
-65.7792
11
55.6348
21
-65.6739
0
LINE
8
BLACK
6
CONTINUOUS
10
55.6348
20
-65.6739
11
55.5755
21
-65.5794
0
LINE
8
BLACK
6
CONTINUOUS
10
55.5755
20
-65.5794
11
55.4966
21
-65.5005
0
LINE
8
BLACK
6
CONTINUOUS
10
55.4966
20
-65.5005
11
55.4021
21
-65.4412
0
LINE
8
BLACK
6
CONTINUOUS
10
55.4021
20
-65.4412
11
55.2968
21
-65.4044
0
LINE
8
BLACK
6
CONTINUOUS
10
55.2968
20
-65.4044
11
55.19
21
-65.3923
0
LINE
8
BLACK
6
CONTINUOUS
10
55.19
20
-65.3923
11
55.1895
21
-65.3935
0
LINE
8
BLACK
6
CONTINUOUS
10
55.1895
20
-65.3935
11
55.186
21
-65.395
0
LINE
8
BLACK
6
CONTINUOUS
10
55.186
20
-65.395
11
55.186
21
-65.395
0
LINE
8
BLACK
6
CONTINUOUS
10
55.186
20
-65.395
11
42.186
21
-65.395
0
LINE
8
BLACK
6
CONTINUOUS
10
42.186
20
-65.395
11
42.186
21
-65.395
0
LINE
8
BLACK
6
CONTINUOUS
10
42.186
20
-65.395
11
42.1825
21
-65.3935
0
LINE
8
BLACK
6
CONTINUOUS
10
42.1825
20
-65.3935
11
42.182
21
-65.3923
0
LINE
8
BLACK
6
CONTINUOUS
10
42.182
20
-65.3923
11
42.0752
21
-65.4044
0
LINE
8
BLACK
6
CONTINUOUS
10
42.0752
20
-65.4044
11
41.9699
21
-65.4412
0
LINE
8
BLACK
6
CONTINUOUS
10
41.9699
20
-65.4412
11
41.8754
21
-65.5005
0
LINE
8
BLACK
6
CONTINUOUS
10
41.8754
20
-65.5005
11
41.7965
21
-65.5794
0
LINE
8
BLACK
6
CONTINUOUS
10
41.7965
20
-65.5794
11
41.7372
21
-65.6739
0
LINE
8
BLACK
6
CONTINUOUS
10
41.7372
20
-65.6739
11
41.7004
21
-65.7792
0
LINE
8
BLACK
6
CONTINUOUS
10
41.7004
20
-65.7792
11
41.6883
21
-65.886
0
LINE
8
BLACK
6
CONTINUOUS
10
41.6883
20
-65.886
11
41.6895
21
-65.8865
0
LINE
8
BLACK
6
CONTINUOUS
10
41.6895
20
-65.8865
11
41.691
21
-65.89
0
LINE
8
BLACK
6
CONTINUOUS
10
41.691
20
-65.89
11
41.691
21
-65.89
0
LINE
8
BLACK
6
CONTINUOUS
10
41.691
20
-65.89
11
41.691
21
-78.8809
0
LINE
8
BLACK
6
CONTINUOUS
10
41.691
20
-78.8809
11
41.691
21
-78.8809
0
LINE
8
BLACK
6
CONTINUOUS
10
41.691
20
-78.8809
11
41.6895
21
-78.8845
0
LINE
8
BLACK
6
CONTINUOUS
10
41.6895
20
-78.8845
11
41.6883
21
-78.885
0
LINE
8
BLACK
6
CONTINUOUS
10
41.6883
20
-78.885
11
41.7004
21
-78.9918
0
LINE
8
BLACK
6
CONTINUOUS
10
41.7004
20
-78.9918
11
41.7372
21
-79.0971
0
LINE
8
BLACK
6
CONTINUOUS
10
41.7372
20
-79.0971
11
41.7965
21
-79.1915
0
LINE
8
BLACK
6
CONTINUOUS
10
41.7965
20
-79.1915
11
41.8754
21
-79.2704
0
LINE
8
BLACK
6
CONTINUOUS
10
41.8754
20
-79.2704
11
41.9699
21
-79.3297
0
LINE
8
BLACK
6
CONTINUOUS
10
41.9699
20
-79.3297
11
42.0752
21
-79.3666
0
LINE
8
BLACK
6
CONTINUOUS
10
42.0752
20
-79.3666
11
42.182
21
-79.3786
0
LINE
8
BLACK
6
CONTINUOUS
10
42.182
20
-79.3786
11
42.1825
21
-79.3774
0
LINE
8
BLACK
6
CONTINUOUS
10
42.1825
20
-79.3774
11
42.1825
21
-79.3774
0
LINE
8
BLACK
6
CONTINUOUS
10
42.1825
20
-79.3774
11
42.1837
21
-79.3769
0
LINE
8
BLACK
6
CONTINUOUS
10
96.214
20
-64.369
11
109.214
21
-64.3781
0
LINE
8
BLACK
6
CONTINUOUS
10
109.214
20
-64.3781
11
109.214
21
-64.3781
0
LINE
8
BLACK
6
CONTINUOUS
10
109.214
20
-64.3781
11
109.326
21
-64.3907
0
LINE
8
BLACK
6
CONTINUOUS
10
109.326
20
-64.3907
11
109.433
21
-64.4281
0
LINE
8
BLACK
6
CONTINUOUS
10
109.433
20
-64.4281
11
109.529
21
-64.4882
0
LINE
8
BLACK
6
CONTINUOUS
10
109.529
20
-64.4882
11
109.609
21
-64.5682
0
LINE
8
BLACK
6
CONTINUOUS
10
109.609
20
-64.5682
11
109.669
21
-64.664
0
LINE
8
BLACK
6
CONTINUOUS
10
109.669
20
-64.664
11
109.706
21
-64.7707
0
LINE
8
BLACK
6
CONTINUOUS
10
109.706
20
-64.7707
11
109.719
21
-64.8831
0
LINE
8
BLACK
6
CONTINUOUS
10
109.719
20
-64.8831
11
109.719
21
-64.8831
0
LINE
8
BLACK
6
CONTINUOUS
10
109.719
20
-64.8831
11
109.719
21
-77.874
0
LINE
8
BLACK
6
CONTINUOUS
10
109.719
20
-77.874
11
109.719
21
-77.874
0
LINE
8
BLACK
6
CONTINUOUS
10
109.719
20
-77.874
11
109.706
21
-77.9864
0
LINE
8
BLACK
6
CONTINUOUS
10
109.706
20
-77.9864
11
109.669
21
-78.0931
0
LINE
8
BLACK
6
CONTINUOUS
10
109.669
20
-78.0931
11
109.609
21
-78.1889
0
LINE
8
BLACK
6
CONTINUOUS
10
109.609
20
-78.1889
11
109.529
21
-78.2688
0
LINE
8
BLACK
6
CONTINUOUS
10
109.529
20
-78.2688
11
109.433
21
-78.329
0
LINE
8
BLACK
6
CONTINUOUS
10
109.433
20
-78.329
11
109.326
21
-78.3663
0
LINE
8
BLACK
6
CONTINUOUS
10
109.326
20
-78.3663
11
109.214
21
-78.379
0
LINE
8
BLACK
6
CONTINUOUS
10
109.214
20
-78.379
11
109.214
21
-78.379
0
LINE
8
BLACK
6
CONTINUOUS
10
109.214
20
-78.379
11
96.214
21
-78.379
0
LINE
8
BLACK
6
CONTINUOUS
10
96.214
20
-78.379
11
96.214
21
-78.379
0
LINE
8
BLACK
6
CONTINUOUS
10
96.214
20
-78.379
11
96.1016
21
-78.3663
0
LINE
8
BLACK
6
CONTINUOUS
10
96.1016
20
-78.3663
11
95.9949
21
-78.329
0
LINE
8
BLACK
6
CONTINUOUS
10
95.9949
20
-78.329
11
95.8991
21
-78.2688
0
LINE
8
BLACK
6
CONTINUOUS
10
95.8991
20
-78.2688
11
95.8192
21
-78.1889
0
LINE
8
BLACK
6
CONTINUOUS
10
95.8192
20
-78.1889
11
95.759
21
-78.0931
0
LINE
8
BLACK
6
CONTINUOUS
10
95.759
20
-78.0931
11
95.7217
21
-77.9864
0
LINE
8
BLACK
6
CONTINUOUS
10
95.7217
20
-77.9864
11
95.709
21
-77.874
0
LINE
8
BLACK
6
CONTINUOUS
10
95.709
20
-77.874
11
95.709
21
-77.874
0
LINE
8
BLACK
6
CONTINUOUS
10
95.709
20
-77.874
11
95.709
21
-64.874
0
LINE
8
BLACK
6
CONTINUOUS
10
95.709
20
-64.874
11
95.709
21
-64.874
0
LINE
8
BLACK
6
CONTINUOUS
10
95.709
20
-64.874
11
95.7217
21
-64.7616
0
LINE
8
BLACK
6
CONTINUOUS
10
95.7217
20
-64.7616
11
95.759
21
-64.6549
0
LINE
8
BLACK
6
CONTINUOUS
10
95.759
20
-64.6549
11
95.8192
21
-64.5591
0
LINE
8
BLACK
6
CONTINUOUS
10
95.8192
20
-64.5591
11
95.8991
21
-64.4792
0
LINE
8
BLACK
6
CONTINUOUS
10
95.8991
20
-64.4792
11
95.9949
21
-64.419
0
LINE
8
BLACK
6
CONTINUOUS
10
95.9949
20
-64.419
11
96.1016
21
-64.3817
0
LINE
8
BLACK
6
CONTINUOUS
10
96.1016
20
-64.3817
11
96.214
21
-64.369
0
LINE
8
BLACK
6
CONTINUOUS
10
96.214
20
-64.369
11
96.214
21
-64.369
0
LINE
8
BLACK
6
CONTINUOUS
10
96.21
20
-64.3763
11
96.1032
21
-64.3884
0
LINE
8
BLACK
6
CONTINUOUS
10
96.1032
20
-64.3884
11
95.9979
21
-64.4252
0
LINE
8
BLACK
6
CONTINUOUS
10
95.9979
20
-64.4252
11
95.9034
21
-64.4845
0
LINE
8
BLACK
6
CONTINUOUS
10
95.9034
20
-64.4845
11
95.8245
21
-64.5634
0
LINE
8
BLACK
6
CONTINUOUS
10
95.8245
20
-64.5634
11
95.7652
21
-64.6579
0
LINE
8
BLACK
6
CONTINUOUS
10
95.7652
20
-64.6579
11
95.7284
21
-64.7632
0
LINE
8
BLACK
6
CONTINUOUS
10
95.7284
20
-64.7632
11
95.7163
21
-64.87
0
LINE
8
BLACK
6
CONTINUOUS
10
95.7163
20
-64.87
11
95.7175
21
-64.8705
0
LINE
8
BLACK
6
CONTINUOUS
10
95.7175
20
-64.8705
11
95.719
21
-64.874
0
LINE
8
BLACK
6
CONTINUOUS
10
95.719
20
-64.874
11
95.719
21
-64.874
0
LINE
8
BLACK
6
CONTINUOUS
10
95.719
20
-64.874
11
95.719
21
-77.874
0
LINE
8
BLACK
6
CONTINUOUS
10
95.719
20
-77.874
11
95.719
21
-77.874
0
LINE
8
BLACK
6
CONTINUOUS
10
95.719
20
-77.874
11
95.7175
21
-77.8775
0
LINE
8
BLACK
6
CONTINUOUS
10
95.7175
20
-77.8775
11
95.7163
21
-77.878
0
LINE
8
BLACK
6
CONTINUOUS
10
95.7163
20
-77.878
11
95.7284
21
-77.9848
0
LINE
8
BLACK
6
CONTINUOUS
10
95.7284
20
-77.9848
11
95.7652
21
-78.0901
0
LINE
8
BLACK
6
CONTINUOUS
10
95.7652
20
-78.0901
11
95.8245
21
-78.1846
0
LINE
8
BLACK
6
CONTINUOUS
10
95.8245
20
-78.1846
11
95.9034
21
-78.2635
0
LINE
8
BLACK
6
CONTINUOUS
10
95.9034
20
-78.2635
11
95.9979
21
-78.3228
0
LINE
8
BLACK
6
CONTINUOUS
10
95.9979
20
-78.3228
11
96.1032
21
-78.3596
0
LINE
8
BLACK
6
CONTINUOUS
10
96.1032
20
-78.3596
11
96.21
21
-78.3717
0
LINE
8
BLACK
6
CONTINUOUS
10
96.21
20
-78.3717
11
96.2105
21
-78.3705
0
LINE
8
BLACK
6
CONTINUOUS
10
96.2105
20
-78.3705
11
96.214
21
-78.369
0
LINE
8
BLACK
6
CONTINUOUS
10
96.214
20
-78.369
11
96.214
21
-78.369
0
LINE
8
BLACK
6
CONTINUOUS
10
96.214
20
-78.369
11
109.214
21
-78.369
0
LINE
8
BLACK
6
CONTINUOUS
10
109.214
20
-78.369
11
109.214
21
-78.369
0
LINE
8
BLACK
6
CONTINUOUS
10
109.214
20
-78.369
11
109.218
21
-78.3705
0
LINE
8
BLACK
6
CONTINUOUS
10
109.218
20
-78.3705
11
109.218
21
-78.3717
0
LINE
8
BLACK
6
CONTINUOUS
10
109.218
20
-78.3717
11
109.325
21
-78.3596
0
LINE
8
BLACK
6
CONTINUOUS
10
109.325
20
-78.3596
11
109.43
21
-78.3228
0
LINE
8
BLACK
6
CONTINUOUS
10
109.43
20
-78.3228
11
109.525
21
-78.2635
0
LINE
8
BLACK
6
CONTINUOUS
10
109.525
20
-78.2635
11
109.603
21
-78.1846
0
LINE
8
BLACK
6
CONTINUOUS
10
109.603
20
-78.1846
11
109.663
21
-78.0901
0
LINE
8
BLACK
6
CONTINUOUS
10
109.663
20
-78.0901
11
109.7
21
-77.9848
0
LINE
8
BLACK
6
CONTINUOUS
10
109.7
20
-77.9848
11
109.712
21
-77.878
0
LINE
8
BLACK
6
CONTINUOUS
10
109.712
20
-77.878
11
109.71
21
-77.8775
0
LINE
8
BLACK
6
CONTINUOUS
10
109.71
20
-77.8775
11
109.709
21
-77.874
0
LINE
8
BLACK
6
CONTINUOUS
10
109.709
20
-77.874
11
109.709
21
-77.874
0
LINE
8
BLACK
6
CONTINUOUS
10
109.709
20
-77.874
11
109.709
21
-64.8831
0
LINE
8
BLACK
6
CONTINUOUS
10
109.709
20
-64.8831
11
109.709
21
-64.8831
0
LINE
8
BLACK
6
CONTINUOUS
10
109.709
20
-64.8831
11
109.71
21
-64.8795
0
LINE
8
BLACK
6
CONTINUOUS
10
109.71
20
-64.8795
11
109.712
21
-64.879
0
LINE
8
BLACK
6
CONTINUOUS
10
109.712
20
-64.879
11
109.7
21
-64.7722
0
LINE
8
BLACK
6
CONTINUOUS
10
109.7
20
-64.7722
11
109.663
21
-64.6669
0
LINE
8
BLACK
6
CONTINUOUS
10
109.663
20
-64.6669
11
109.603
21
-64.5725
0
LINE
8
BLACK
6
CONTINUOUS
10
109.603
20
-64.5725
11
109.525
21
-64.4936
0
LINE
8
BLACK
6
CONTINUOUS
10
109.525
20
-64.4936
11
109.43
21
-64.4343
0
LINE
8
BLACK
6
CONTINUOUS
10
109.43
20
-64.4343
11
109.325
21
-64.3974
0
LINE
8
BLACK
6
CONTINUOUS
10
109.325
20
-64.3974
11
109.218
21
-64.3854
0
LINE
8
BLACK
6
CONTINUOUS
10
109.218
20
-64.3854
11
109.218
21
-64.3866
0
LINE
8
BLACK
6
CONTINUOUS
10
109.218
20
-64.3866
11
109.218
21
-64.3866
0
LINE
8
BLACK
6
CONTINUOUS
10
109.218
20
-64.3866
11
109.218
21
-64.3866
0
LINE
8
BLACK
6
CONTINUOUS
10
109.218
20
-64.3866
11
109.217
21
-64.3869
0
LINE
8
BLACK
6
CONTINUOUS
10
109.217
20
-64.3869
11
109.214
21
-64.3881
0
LINE
8
BLACK
6
CONTINUOUS
10
109.214
20
-64.3881
11
109.214
21
-64.3881
0
LINE
8
BLACK
6
CONTINUOUS
10
109.214
20
-64.3881
11
109.214
21
-64.3881
0
LINE
8
BLACK
6
CONTINUOUS
10
109.214
20
-64.3881
11
96.214
21
-64.379
0
LINE
8
BLACK
6
CONTINUOUS
10
96.214
20
-64.379
11
96.214
21
-64.379
0
LINE
8
BLACK
6
CONTINUOUS
10
96.214
20
-64.379
11
96.214
21
-64.379
0
LINE
8
BLACK
6
CONTINUOUS
10
96.214
20
-64.379
11
96.214
21
-64.379
0
LINE
8
BLACK
6
CONTINUOUS
10
96.214
20
-64.379
11
96.2134
21
-64.3788
0
LINE
8
BLACK
6
CONTINUOUS
10
96.2134
20
-64.3788
11
96.2105
21
-64.3775
0
LINE
8
BLACK
6
CONTINUOUS
10
96.2105
20
-64.3775
11
96.2105
21
-64.3775
0
LINE
8
BLACK
6
CONTINUOUS
10
96.2105
20
-64.3775
11
96.21
21
-64.3763
0
LINE
8
BLACK
6
CONTINUOUS
10
60.2
20
-62.845
11
73.2
21
-62.8541
0
LINE
8
BLACK
6
CONTINUOUS
10
73.2
20
-62.8541
11
73.2
21
-62.8541
0
LINE
8
BLACK
6
CONTINUOUS
10
73.2
20
-62.8541
11
73.3124
21
-62.8667
0
LINE
8
BLACK
6
CONTINUOUS
10
73.3124
20
-62.8667
11
73.4191
21
-62.9041
0
LINE
8
BLACK
6
CONTINUOUS
10
73.4191
20
-62.9041
11
73.5149
21
-62.9642
0
LINE
8
BLACK
6
CONTINUOUS
10
73.5149
20
-62.9642
11
73.5948
21
-63.0442
0
LINE
8
BLACK
6
CONTINUOUS
10
73.5948
20
-63.0442
11
73.655
21
-63.14
0
LINE
8
BLACK
6
CONTINUOUS
10
73.655
20
-63.14
11
73.6923
21
-63.2467
0
LINE
8
BLACK
6
CONTINUOUS
10
73.6923
20
-63.2467
11
73.705
21
-63.3591
0
LINE
8
BLACK
6
CONTINUOUS
10
73.705
20
-63.3591
11
73.705
21
-63.3591
0
LINE
8
BLACK
6
CONTINUOUS
10
73.705
20
-63.3591
11
73.705
21
-76.35
0
LINE
8
BLACK
6
CONTINUOUS
10
73.705
20
-76.35
11
73.705
21
-76.35
0
LINE
8
BLACK
6
CONTINUOUS
10
73.705
20
-76.35
11
73.6923
21
-76.4624
0
LINE
8
BLACK
6
CONTINUOUS
10
73.6923
20
-76.4624
11
73.655
21
-76.5691
0
LINE
8
BLACK
6
CONTINUOUS
10
73.655
20
-76.5691
11
73.5948
21
-76.6649
0
LINE
8
BLACK
6
CONTINUOUS
10
73.5948
20
-76.6649
11
73.5149
21
-76.7448
0
LINE
8
BLACK
6
CONTINUOUS
10
73.5149
20
-76.7448
11
73.4191
21
-76.805
0
LINE
8
BLACK
6
CONTINUOUS
10
73.4191
20
-76.805
11
73.3124
21
-76.8423
0
LINE
8
BLACK
6
CONTINUOUS
10
73.3124
20
-76.8423
11
73.2
21
-76.855
0
LINE
8
BLACK
6
CONTINUOUS
10
73.2
20
-76.855
11
73.2
21
-76.855
0
LINE
8
BLACK
6
CONTINUOUS
10
73.2
20
-76.855
11
60.2
21
-76.855
0
LINE
8
BLACK
6
CONTINUOUS
10
60.2
20
-76.855
11
60.2
21
-76.855
0
LINE
8
BLACK
6
CONTINUOUS
10
60.2
20
-76.855
11
60.0876
21
-76.8423
0
LINE
8
BLACK
6
CONTINUOUS
10
60.0876
20
-76.8423
11
59.9809
21
-76.805
0
LINE
8
BLACK
6
CONTINUOUS
10
59.9809
20
-76.805
11
59.8851
21
-76.7448
0
LINE
8
BLACK
6
CONTINUOUS
10
59.8851
20
-76.7448
11
59.8052
21
-76.6649
0
LINE
8
BLACK
6
CONTINUOUS
10
59.8052
20
-76.6649
11
59.745
21
-76.5691
0
LINE
8
BLACK
6
CONTINUOUS
10
59.745
20
-76.5691
11
59.7077
21
-76.4624
0
LINE
8
BLACK
6
CONTINUOUS
10
59.7077
20
-76.4624
11
59.695
21
-76.35
0
LINE
8
BLACK
6
CONTINUOUS
10
59.695
20
-76.35
11
59.695
21
-76.35
0
LINE
8
BLACK
6
CONTINUOUS
10
59.695
20
-76.35
11
59.695
21
-63.35
0
LINE
8
BLACK
6
CONTINUOUS
10
59.695
20
-63.35
11
59.695
21
-63.35
0
LINE
8
BLACK
6
CONTINUOUS
10
59.695
20
-63.35
11
59.7077
21
-63.2376
0
LINE
8
BLACK
6
CONTINUOUS
10
59.7077
20
-63.2376
11
59.745
21
-63.1309
0
LINE
8
BLACK
6
CONTINUOUS
10
59.745
20
-63.1309
11
59.8052
21
-63.0351
0
LINE
8
BLACK
6
CONTINUOUS
10
59.8052
20
-63.0351
11
59.8851
21
-62.9552
0
LINE
8
BLACK
6
CONTINUOUS
10
59.8851
20
-62.9552
11
59.9809
21
-62.895
0
LINE
8
BLACK
6
CONTINUOUS
10
59.9809
20
-62.895
11
60.0876
21
-62.8577
0
LINE
8
BLACK
6
CONTINUOUS
10
60.0876
20
-62.8577
11
60.2
21
-62.845
0
LINE
8
BLACK
6
CONTINUOUS
10
60.2
20
-62.845
11
60.2
21
-62.845
0
LINE
8
BLACK
6
CONTINUOUS
10
60.196
20
-62.8523
11
60.0892
21
-62.8644
0
LINE
8
BLACK
6
CONTINUOUS
10
60.0892
20
-62.8644
11
59.9839
21
-62.9012
0
LINE
8
BLACK
6
CONTINUOUS
10
59.9839
20
-62.9012
11
59.8894
21
-62.9605
0
LINE
8
BLACK
6
CONTINUOUS
10
59.8894
20
-62.9605
11
59.8105
21
-63.0394
0
LINE
8
BLACK
6
CONTINUOUS
10
59.8105
20
-63.0394
11
59.7512
21
-63.1339
0
LINE
8
BLACK
6
CONTINUOUS
10
59.7512
20
-63.1339
11
59.7144
21
-63.2392
0
LINE
8
BLACK
6
CONTINUOUS
10
59.7144
20
-63.2392
11
59.7023
21
-63.346
0
LINE
8
BLACK
6
CONTINUOUS
10
59.7023
20
-63.346
11
59.7035
21
-63.3465
0
LINE
8
BLACK
6
CONTINUOUS
10
59.7035
20
-63.3465
11
59.705
21
-63.35
0
LINE
8
BLACK
6
CONTINUOUS
10
59.705
20
-63.35
11
59.705
21
-63.35
0
LINE
8
BLACK
6
CONTINUOUS
10
59.705
20
-63.35
11
59.705
21
-76.35
0
LINE
8
BLACK
6
CONTINUOUS
10
59.705
20
-76.35
11
59.705
21
-76.35
0
LINE
8
BLACK
6
CONTINUOUS
10
59.705
20
-76.35
11
59.7035
21
-76.3535
0
LINE
8
BLACK
6
CONTINUOUS
10
59.7035
20
-76.3535
11
59.7023
21
-76.354
0
LINE
8
BLACK
6
CONTINUOUS
10
59.7023
20
-76.354
11
59.7144
21
-76.4608
0
LINE
8
BLACK
6
CONTINUOUS
10
59.7144
20
-76.4608
11
59.7512
21
-76.5661
0
LINE
8
BLACK
6
CONTINUOUS
10
59.7512
20
-76.5661
11
59.8105
21
-76.6606
0
LINE
8
BLACK
6
CONTINUOUS
10
59.8105
20
-76.6606
11
59.8894
21
-76.7395
0
LINE
8
BLACK
6
CONTINUOUS
10
59.8894
20
-76.7395
11
59.9839
21
-76.7988
0
LINE
8
BLACK
6
CONTINUOUS
10
59.9839
20
-76.7988
11
60.0892
21
-76.8356
0
LINE
8
BLACK
6
CONTINUOUS
10
60.0892
20
-76.8356
11
60.196
21
-76.8477
0
LINE
8
BLACK
6
CONTINUOUS
10
60.196
20
-76.8477
11
60.1965
21
-76.8465
0
LINE
8
BLACK
6
CONTINUOUS
10
60.1965
20
-76.8465
11
60.2
21
-76.845
0
LINE
8
BLACK
6
CONTINUOUS
10
60.2
20
-76.845
11
60.2
21
-76.845
0
LINE
8
BLACK
6
CONTINUOUS
10
60.2
20
-76.845
11
73.2
21
-76.845
0
LINE
8
BLACK
6
CONTINUOUS
10
73.2
20
-76.845
11
73.2
21
-76.845
0
LINE
8
BLACK
6
CONTINUOUS
10
73.2
20
-76.845
11
73.2035
21
-76.8465
0
LINE
8
BLACK
6
CONTINUOUS
10
73.2035
20
-76.8465
11
73.204
21
-76.8477
0
LINE
8
BLACK
6
CONTINUOUS
10
73.204
20
-76.8477
11
73.3108
21
-76.8356
0
LINE
8
BLACK
6
CONTINUOUS
10
73.3108
20
-76.8356
11
73.4161
21
-76.7988
0
LINE
8
BLACK
6
CONTINUOUS
10
73.4161
20
-76.7988
11
73.5106
21
-76.7395
0
LINE
8
BLACK
6
CONTINUOUS
10
73.5106
20
-76.7395
11
73.5895
21
-76.6606
0
LINE
8
BLACK
6
CONTINUOUS
10
73.5895
20
-76.6606
11
73.6488
21
-76.5661
0
LINE
8
BLACK
6
CONTINUOUS
10
73.6488
20
-76.5661
11
73.6856
21
-76.4608
0
LINE
8
BLACK
6
CONTINUOUS
10
73.6856
20
-76.4608
11
73.6977
21
-76.354
0
LINE
8
BLACK
6
CONTINUOUS
10
73.6977
20
-76.354
11
73.6965
21
-76.3535
0
LINE
8
BLACK
6
CONTINUOUS
10
73.6965
20
-76.3535
11
73.695
21
-76.35
0
LINE
8
BLACK
6
CONTINUOUS
10
73.695
20
-76.35
11
73.695
21
-76.35
0
LINE
8
BLACK
6
CONTINUOUS
10
73.695
20
-76.35
11
73.695
21
-63.3591
0
LINE
8
BLACK
6
CONTINUOUS
10
73.695
20
-63.3591
11
73.695
21
-63.3591
0
LINE
8
BLACK
6
CONTINUOUS
10
73.695
20
-63.3591
11
73.6965
21
-63.3555
0
LINE
8
BLACK
6
CONTINUOUS
10
73.6965
20
-63.3555
11
73.6977
21
-63.355
0
LINE
8
BLACK
6
CONTINUOUS
10
73.6977
20
-63.355
11
73.6856
21
-63.2482
0
LINE
8
BLACK
6
CONTINUOUS
10
73.6856
20
-63.2482
11
73.6488
21
-63.1429
0
LINE
8
BLACK
6
CONTINUOUS
10
73.6488
20
-63.1429
11
73.5895
21
-63.0485
0
LINE
8
BLACK
6
CONTINUOUS
10
73.5895
20
-63.0485
11
73.5106
21
-62.9696
0
LINE
8
BLACK
6
CONTINUOUS
10
73.5106
20
-62.9696
11
73.4161
21
-62.9103
0
LINE
8
BLACK
6
CONTINUOUS
10
73.4161
20
-62.9103
11
73.3108
21
-62.8734
0
LINE
8
BLACK
6
CONTINUOUS
10
73.3108
20
-62.8734
11
73.204
21
-62.8614
0
LINE
8
BLACK
6
CONTINUOUS
10
73.204
20
-62.8614
11
73.2035
21
-62.8626
0
LINE
8
BLACK
6
CONTINUOUS
10
73.2035
20
-62.8626
11
73.2035
21
-62.8626
0
LINE
8
BLACK
6
CONTINUOUS
10
73.2035
20
-62.8626
11
73.2035
21
-62.8626
0
LINE
8
BLACK
6
CONTINUOUS
10
73.2035
20
-62.8626
11
73.2027
21
-62.8629
0
LINE
8
BLACK
6
CONTINUOUS
10
73.2027
20
-62.8629
11
73.2
21
-62.8641
0
LINE
8
BLACK
6
CONTINUOUS
10
73.2
20
-62.8641
11
73.2
21
-62.8641
0
LINE
8
BLACK
6
CONTINUOUS
10
73.2
20
-62.8641
11
73.2
21
-62.8641
0
LINE
8
BLACK
6
CONTINUOUS
10
73.2
20
-62.8641
11
60.2
21
-62.855
0
LINE
8
BLACK
6
CONTINUOUS
10
60.2
20
-62.855
11
60.2
21
-62.855
0
LINE
8
BLACK
6
CONTINUOUS
10
60.2
20
-62.855
11
60.2
21
-62.855
0
LINE
8
BLACK
6
CONTINUOUS
10
60.2
20
-62.855
11
60.2
21
-62.855
0
LINE
8
BLACK
6
CONTINUOUS
10
60.2
20
-62.855
11
60.1994
21
-62.8548
0
LINE
8
BLACK
6
CONTINUOUS
10
60.1994
20
-62.8548
11
60.1965
21
-62.8535
0
LINE
8
BLACK
6
CONTINUOUS
10
60.1965
20
-62.8535
11
60.1965
21
-62.8535
0
LINE
8
BLACK
6
CONTINUOUS
10
60.1965
20
-62.8535
11
60.196
21
-62.8523
0
LINE
8
BLACK
6
CONTINUOUS
10
114.232
20
-59.377
11
127.232
21
-59.3861
0
LINE
8
BLACK
6
CONTINUOUS
10
127.232
20
-59.3861
11
127.232
21
-59.3861
0
LINE
8
BLACK
6
CONTINUOUS
10
127.232
20
-59.3861
11
127.344
21
-59.3987
0
LINE
8
BLACK
6
CONTINUOUS
10
127.344
20
-59.3987
11
127.451
21
-59.4361
0
LINE
8
BLACK
6
CONTINUOUS
10
127.451
20
-59.4361
11
127.547
21
-59.4962
0
LINE
8
BLACK
6
CONTINUOUS
10
127.547
20
-59.4962
11
127.627
21
-59.5762
0
LINE
8
BLACK
6
CONTINUOUS
10
127.627
20
-59.5762
11
127.687
21
-59.672
0
LINE
8
BLACK
6
CONTINUOUS
10
127.687
20
-59.672
11
127.724
21
-59.7787
0
LINE
8
BLACK
6
CONTINUOUS
10
127.724
20
-59.7787
11
127.737
21
-59.8911
0
LINE
8
BLACK
6
CONTINUOUS
10
127.737
20
-59.8911
11
127.737
21
-59.8911
0
LINE
8
BLACK
6
CONTINUOUS
10
127.737
20
-59.8911
11
127.737
21
-72.882
0
LINE
8
BLACK
6
CONTINUOUS
10
127.737
20
-72.882
11
127.737
21
-72.882
0
LINE
8
BLACK
6
CONTINUOUS
10
127.737
20
-72.882
11
127.724
21
-72.9944
0
LINE
8
BLACK
6
CONTINUOUS
10
127.724
20
-72.9944
11
127.687
21
-73.1011
0
LINE
8
BLACK
6
CONTINUOUS
10
127.687
20
-73.1011
11
127.627
21
-73.1969
0
LINE
8
BLACK
6
CONTINUOUS
10
127.627
20
-73.1969
11
127.547
21
-73.2768
0
LINE
8
BLACK
6
CONTINUOUS
10
127.547
20
-73.2768
11
127.451
21
-73.337
0
LINE
8
BLACK
6
CONTINUOUS
10
127.451
20
-73.337
11
127.344
21
-73.3743
0
LINE
8
BLACK
6
CONTINUOUS
10
127.344
20
-73.3743
11
127.232
21
-73.387
0
LINE
8
BLACK
6
CONTINUOUS
10
127.232
20
-73.387
11
127.232
21
-73.387
0
LINE
8
BLACK
6
CONTINUOUS
10
127.232
20
-73.387
11
114.232
21
-73.387
0
LINE
8
BLACK
6
CONTINUOUS
10
114.232
20
-73.387
11
114.232
21
-73.387
0
LINE
8
BLACK
6
CONTINUOUS
10
114.232
20
-73.387
11
114.12
21
-73.3743
0
LINE
8
BLACK
6
CONTINUOUS
10
114.12
20
-73.3743
11
114.013
21
-73.337
0
LINE
8
BLACK
6
CONTINUOUS
10
114.013
20
-73.337
11
113.917
21
-73.2768
0
LINE
8
BLACK
6
CONTINUOUS
10
113.917
20
-73.2768
11
113.837
21
-73.1969
0
LINE
8
BLACK
6
CONTINUOUS
10
113.837
20
-73.1969
11
113.777
21
-73.1011
0
LINE
8
BLACK
6
CONTINUOUS
10
113.777
20
-73.1011
11
113.74
21
-72.9944
0
LINE
8
BLACK
6
CONTINUOUS
10
113.74
20
-72.9944
11
113.727
21
-72.882
0
LINE
8
BLACK
6
CONTINUOUS
10
113.727
20
-72.882
11
113.727
21
-72.882
0
LINE
8
BLACK
6
CONTINUOUS
10
113.727
20
-72.882
11
113.727
21
-59.882
0
LINE
8
BLACK
6
CONTINUOUS
10
113.727
20
-59.882
11
113.727
21
-59.882
0
LINE
8
BLACK
6
CONTINUOUS
10
113.727
20
-59.882
11
113.74
21
-59.7696
0
LINE
8
BLACK
6
CONTINUOUS
10
113.74
20
-59.7696
11
113.777
21
-59.6629
0
LINE
8
BLACK
6
CONTINUOUS
10
113.777
20
-59.6629
11
113.837
21
-59.5671
0
LINE
8
BLACK
6
CONTINUOUS
10
113.837
20
-59.5671
11
113.917
21
-59.4872
0
LINE
8
BLACK
6
CONTINUOUS
10
113.917
20
-59.4872
11
114.013
21
-59.427
0
LINE
8
BLACK
6
CONTINUOUS
10
114.013
20
-59.427
11
114.12
21
-59.3897
0
LINE
8
BLACK
6
CONTINUOUS
10
114.12
20
-59.3897
11
114.232
21
-59.377
0
LINE
8
BLACK
6
CONTINUOUS
10
114.232
20
-59.377
11
114.232
21
-59.377
0
LINE
8
BLACK
6
CONTINUOUS
10
114.228
20
-59.3843
11
114.121
21
-59.3964
0
LINE
8
BLACK
6
CONTINUOUS
10
114.121
20
-59.3964
11
114.016
21
-59.4332
0
LINE
8
BLACK
6
CONTINUOUS
10
114.016
20
-59.4332
11
113.921
21
-59.4925
0
LINE
8
BLACK
6
CONTINUOUS
10
113.921
20
-59.4925
11
113.843
21
-59.5714
0
LINE
8
BLACK
6
CONTINUOUS
10
113.843
20
-59.5714
11
113.783
21
-59.6659
0
LINE
8
BLACK
6
CONTINUOUS
10
113.783
20
-59.6659
11
113.746
21
-59.7712
0
LINE
8
BLACK
6
CONTINUOUS
10
113.746
20
-59.7712
11
113.734
21
-59.878
0
LINE
8
BLACK
6
CONTINUOUS
10
113.734
20
-59.878
11
113.736
21
-59.8785
0
LINE
8
BLACK
6
CONTINUOUS
10
113.736
20
-59.8785
11
113.737
21
-59.882
0
LINE
8
BLACK
6
CONTINUOUS
10
113.737
20
-59.882
11
113.737
21
-59.882
0
LINE
8
BLACK
6
CONTINUOUS
10
113.737
20
-59.882
11
113.737
21
-72.882
0
LINE
8
BLACK
6
CONTINUOUS
10
113.737
20
-72.882
11
113.737
21
-72.882
0
LINE
8
BLACK
6
CONTINUOUS
10
113.737
20
-72.882
11
113.736
21
-72.8855
0
LINE
8
BLACK
6
CONTINUOUS
10
113.736
20
-72.8855
11
113.734
21
-72.886
0
LINE
8
BLACK
6
CONTINUOUS
10
113.734
20
-72.886
11
113.746
21
-72.9928
0
LINE
8
BLACK
6
CONTINUOUS
10
113.746
20
-72.9928
11
113.783
21
-73.0981
0
LINE
8
BLACK
6
CONTINUOUS
10
113.783
20
-73.0981
11
113.843
21
-73.1926
0
LINE
8
BLACK
6
CONTINUOUS
10
113.843
20
-73.1926
11
113.921
21
-73.2715
0
LINE
8
BLACK
6
CONTINUOUS
10
113.921
20
-73.2715
11
114.016
21
-73.3308
0
LINE
8
BLACK
6
CONTINUOUS
10
114.016
20
-73.3308
11
114.121
21
-73.3676
0
LINE
8
BLACK
6
CONTINUOUS
10
114.121
20
-73.3676
11
114.228
21
-73.3797
0
LINE
8
BLACK
6
CONTINUOUS
10
114.228
20
-73.3797
11
114.228
21
-73.3785
0
LINE
8
BLACK
6
CONTINUOUS
10
114.228
20
-73.3785
11
114.232
21
-73.377
0
LINE
8
BLACK
6
CONTINUOUS
10
114.232
20
-73.377
11
114.232
21
-73.377
0
LINE
8
BLACK
6
CONTINUOUS
10
114.232
20
-73.377
11
127.232
21
-73.377
0
LINE
8
BLACK
6
CONTINUOUS
10
127.232
20
-73.377
11
127.232
21
-73.377
0
LINE
8
BLACK
6
CONTINUOUS
10
127.232
20
-73.377
11
127.236
21
-73.3785
0
LINE
8
BLACK
6
CONTINUOUS
10
127.236
20
-73.3785
11
127.236
21
-73.3797
0
LINE
8
BLACK
6
CONTINUOUS
10
127.236
20
-73.3797
11
127.343
21
-73.3676
0
LINE
8
BLACK
6
CONTINUOUS
10
127.343
20
-73.3676
11
127.448
21
-73.3308
0
LINE
8
BLACK
6
CONTINUOUS
10
127.448
20
-73.3308
11
127.543
21
-73.2715
0
LINE
8
BLACK
6
CONTINUOUS
10
127.543
20
-73.2715
11
127.621
21
-73.1926
0
LINE
8
BLACK
6
CONTINUOUS
10
127.621
20
-73.1926
11
127.681
21
-73.0981
0
LINE
8
BLACK
6
CONTINUOUS
10
127.681
20
-73.0981
11
127.718
21
-72.9928
0
LINE
8
BLACK
6
CONTINUOUS
10
127.718
20
-72.9928
11
127.73
21
-72.886
0
LINE
8
BLACK
6
CONTINUOUS
10
127.73
20
-72.886
11
127.728
21
-72.8855
0
LINE
8
BLACK
6
CONTINUOUS
10
127.728
20
-72.8855
11
127.727
21
-72.882
0
LINE
8
BLACK
6
CONTINUOUS
10
127.727
20
-72.882
11
127.727
21
-72.882
0
LINE
8
BLACK
6
CONTINUOUS
10
127.727
20
-72.882
11
127.727
21
-59.8911
0
LINE
8
BLACK
6
CONTINUOUS
10
127.727
20
-59.8911
11
127.727
21
-59.8911
0
LINE
8
BLACK
6
CONTINUOUS
10
127.727
20
-59.8911
11
127.728
21
-59.8875
0
LINE
8
BLACK
6
CONTINUOUS
10
127.728
20
-59.8875
11
127.73
21
-59.887
0
LINE
8
BLACK
6
CONTINUOUS
10
127.73
20
-59.887
11
127.718
21
-59.7802
0
LINE
8
BLACK
6
CONTINUOUS
10
127.718
20
-59.7802
11
127.681
21
-59.6749
0
LINE
8
BLACK
6
CONTINUOUS
10
127.681
20
-59.6749
11
127.621
21
-59.5805
0
LINE
8
BLACK
6
CONTINUOUS
10
127.621
20
-59.5805
11
127.543
21
-59.5016
0
LINE
8
BLACK
6
CONTINUOUS
10
127.543
20
-59.5016
11
127.448
21
-59.4423
0
LINE
8
BLACK
6
CONTINUOUS
10
127.448
20
-59.4423
11
127.343
21
-59.4054
0
LINE
8
BLACK
6
CONTINUOUS
10
127.343
20
-59.4054
11
127.236
21
-59.3934
0
LINE
8
BLACK
6
CONTINUOUS
10
127.236
20
-59.3934
11
127.236
21
-59.3946
0
LINE
8
BLACK
6
CONTINUOUS
10
127.236
20
-59.3946
11
127.236
21
-59.3946
0
LINE
8
BLACK
6
CONTINUOUS
10
127.236
20
-59.3946
11
127.236
21
-59.3946
0
LINE
8
BLACK
6
CONTINUOUS
10
127.236
20
-59.3946
11
127.235
21
-59.3949
0
LINE
8
BLACK
6
CONTINUOUS
10
127.235
20
-59.3949
11
127.232
21
-59.3961
0
LINE
8
BLACK
6
CONTINUOUS
10
127.232
20
-59.3961
11
127.232
21
-59.3961
0
LINE
8
BLACK
6
CONTINUOUS
10
127.232
20
-59.3961
11
127.232
21
-59.3961
0
LINE
8
BLACK
6
CONTINUOUS
10
127.232
20
-59.3961
11
114.232
21
-59.387
0
LINE
8
BLACK
6
CONTINUOUS
10
114.232
20
-59.387
11
114.232
21
-59.387
0
LINE
8
BLACK
6
CONTINUOUS
10
114.232
20
-59.387
11
114.232
21
-59.387
0
LINE
8
BLACK
6
CONTINUOUS
10
114.232
20
-59.387
11
114.232
21
-59.387
0
LINE
8
BLACK
6
CONTINUOUS
10
114.232
20
-59.387
11
114.231
21
-59.3868
0
LINE
8
BLACK
6
CONTINUOUS
10
114.231
20
-59.3868
11
114.228
21
-59.3855
0
LINE
8
BLACK
6
CONTINUOUS
10
114.228
20
-59.3855
11
114.228
21
-59.3855
0
LINE
8
BLACK
6
CONTINUOUS
10
114.228
20
-59.3855
11
114.228
21
-59.3843
0
LINE
8
BLACK
6
CONTINUOUS
10
91.3004
20
-57.5237
11
91.4071
21
-57.561
0
LINE
8
BLACK
6
CONTINUOUS
10
91.4071
20
-57.561
11
91.5029
21
-57.6212
0
LINE
8
BLACK
6
CONTINUOUS
10
91.5029
20
-57.6212
11
91.5828
21
-57.7011
0
LINE
8
BLACK
6
CONTINUOUS
10
91.5828
20
-57.7011
11
91.643
21
-57.7969
0
LINE
8
BLACK
6
CONTINUOUS
10
91.643
20
-57.7969
11
91.6803
21
-57.9036
0
LINE
8
BLACK
6
CONTINUOUS
10
91.6803
20
-57.9036
11
91.693
21
-58.016
0
LINE
8
BLACK
6
CONTINUOUS
10
91.693
20
-58.016
11
91.693
21
-58.016
0
LINE
8
BLACK
6
CONTINUOUS
10
91.693
20
-58.016
11
91.693
21
-71.016
0
LINE
8
BLACK
6
CONTINUOUS
10
91.693
20
-71.016
11
91.693
21
-71.016
0
LINE
8
BLACK
6
CONTINUOUS
10
91.693
20
-71.016
11
91.6803
21
-71.1284
0
LINE
8
BLACK
6
CONTINUOUS
10
91.6803
20
-71.1284
11
91.643
21
-71.2351
0
LINE
8
BLACK
6
CONTINUOUS
10
91.643
20
-71.2351
11
91.5828
21
-71.3309
0
LINE
8
BLACK
6
CONTINUOUS
10
91.5828
20
-71.3309
11
91.5029
21
-71.4108
0
LINE
8
BLACK
6
CONTINUOUS
10
91.5029
20
-71.4108
11
91.4071
21
-71.471
0
LINE
8
BLACK
6
CONTINUOUS
10
91.4071
20
-71.471
11
91.3004
21
-71.5083
0
LINE
8
BLACK
6
CONTINUOUS
10
91.3004
20
-71.5083
11
91.188
21
-71.521
0
LINE
8
BLACK
6
CONTINUOUS
10
91.188
20
-71.521
11
91.188
21
-71.521
0
LINE
8
BLACK
6
CONTINUOUS
10
91.188
20
-71.521
11
91.188
21
-71.521
0
LINE
8
BLACK
6
CONTINUOUS
10
91.188
20
-71.521
11
78.188
21
-71.5119
0
LINE
8
BLACK
6
CONTINUOUS
10
78.188
20
-71.5119
11
78.188
21
-71.5119
0
LINE
8
BLACK
6
CONTINUOUS
10
78.188
20
-71.5119
11
78.0756
21
-71.4993
0
LINE
8
BLACK
6
CONTINUOUS
10
78.0756
20
-71.4993
11
77.9689
21
-71.4619
0
LINE
8
BLACK
6
CONTINUOUS
10
77.9689
20
-71.4619
11
77.8731
21
-71.4018
0
LINE
8
BLACK
6
CONTINUOUS
10
77.8731
20
-71.4018
11
77.7932
21
-71.3218
0
LINE
8
BLACK
6
CONTINUOUS
10
77.7932
20
-71.3218
11
77.733
21
-71.226
0
LINE
8
BLACK
6
CONTINUOUS
10
77.733
20
-71.226
11
77.6957
21
-71.1193
0
LINE
8
BLACK
6
CONTINUOUS
10
77.6957
20
-71.1193
11
77.683
21
-71.0069
0
LINE
8
BLACK
6
CONTINUOUS
10
77.683
20
-71.0069
11
77.683
21
-71.0069
0
LINE
8
BLACK
6
CONTINUOUS
10
77.683
20
-71.0069
11
77.683
21
-58.016
0
LINE
8
BLACK
6
CONTINUOUS
10
77.683
20
-58.016
11
77.683
21
-58.016
0
LINE
8
BLACK
6
CONTINUOUS
10
77.683
20
-58.016
11
77.6957
21
-57.9036
0
LINE
8
BLACK
6
CONTINUOUS
10
77.6957
20
-57.9036
11
77.733
21
-57.7969
0
LINE
8
BLACK
6
CONTINUOUS
10
77.733
20
-57.7969
11
77.7932
21
-57.7011
0
LINE
8
BLACK
6
CONTINUOUS
10
77.7932
20
-57.7011
11
77.8731
21
-57.6212
0
LINE
8
BLACK
6
CONTINUOUS
10
77.8731
20
-57.6212
11
77.9689
21
-57.561
0
LINE
8
BLACK
6
CONTINUOUS
10
77.9689
20
-57.561
11
78.0756
21
-57.5237
0
LINE
8
BLACK
6
CONTINUOUS
10
78.0756
20
-57.5237
11
78.188
21
-57.511
0
LINE
8
BLACK
6
CONTINUOUS
10
78.188
20
-57.511
11
78.188
21
-57.511
0
LINE
8
BLACK
6
CONTINUOUS
10
78.188
20
-57.511
11
91.188
21
-57.511
0
LINE
8
BLACK
6
CONTINUOUS
10
91.188
20
-57.511
11
91.188
21
-57.511
0
LINE
8
BLACK
6
CONTINUOUS
10
91.188
20
-57.511
11
91.3004
21
-57.5237
0
LINE
8
BLACK
6
CONTINUOUS
10
78.1857
20
-71.5029
11
78.188
21
-71.5019
0
LINE
8
BLACK
6
CONTINUOUS
10
78.188
20
-71.5019
11
78.188
21
-71.5019
0
LINE
8
BLACK
6
CONTINUOUS
10
78.188
20
-71.5019
11
91.188
21
-71.511
0
LINE
8
BLACK
6
CONTINUOUS
10
91.188
20
-71.511
11
91.188
21
-71.511
0
LINE
8
BLACK
6
CONTINUOUS
10
91.188
20
-71.511
11
91.188
21
-71.511
0
LINE
8
BLACK
6
CONTINUOUS
10
91.188
20
-71.511
11
91.188
21
-71.511
0
LINE
8
BLACK
6
CONTINUOUS
10
91.188
20
-71.511
11
91.1886
21
-71.5112
0
LINE
8
BLACK
6
CONTINUOUS
10
91.1886
20
-71.5112
11
91.1915
21
-71.5125
0
LINE
8
BLACK
6
CONTINUOUS
10
91.1915
20
-71.5125
11
91.1915
21
-71.5125
0
LINE
8
BLACK
6
CONTINUOUS
10
91.1915
20
-71.5125
11
91.192
21
-71.5137
0
LINE
8
BLACK
6
CONTINUOUS
10
91.192
20
-71.5137
11
91.2988
21
-71.5016
0
LINE
8
BLACK
6
CONTINUOUS
10
91.2988
20
-71.5016
11
91.4041
21
-71.4648
0
LINE
8
BLACK
6
CONTINUOUS
10
91.4041
20
-71.4648
11
91.4986
21
-71.4055
0
LINE
8
BLACK
6
CONTINUOUS
10
91.4986
20
-71.4055
11
91.5775
21
-71.3266
0
LINE
8
BLACK
6
CONTINUOUS
10
91.5775
20
-71.3266
11
91.6368
21
-71.2321
0
LINE
8
BLACK
6
CONTINUOUS
10
91.6368
20
-71.2321
11
91.6736
21
-71.1268
0
LINE
8
BLACK
6
CONTINUOUS
10
91.6736
20
-71.1268
11
91.6857
21
-71.02
0
LINE
8
BLACK
6
CONTINUOUS
10
91.6857
20
-71.02
11
91.6845
21
-71.0195
0
LINE
8
BLACK
6
CONTINUOUS
10
91.6845
20
-71.0195
11
91.683
21
-71.016
0
LINE
8
BLACK
6
CONTINUOUS
10
91.683
20
-71.016
11
91.683
21
-71.016
0
LINE
8
BLACK
6
CONTINUOUS
10
91.683
20
-71.016
11
91.683
21
-58.016
0
LINE
8
BLACK
6
CONTINUOUS
10
91.683
20
-58.016
11
91.683
21
-58.016
0
LINE
8
BLACK
6
CONTINUOUS
10
91.683
20
-58.016
11
91.6845
21
-58.0125
0
LINE
8
BLACK
6
CONTINUOUS
10
91.6845
20
-58.0125
11
91.6857
21
-58.012
0
LINE
8
BLACK
6
CONTINUOUS
10
91.6857
20
-58.012
11
91.6736
21
-57.9052
0
LINE
8
BLACK
6
CONTINUOUS
10
91.6736
20
-57.9052
11
91.6368
21
-57.7999
0
LINE
8
BLACK
6
CONTINUOUS
10
91.6368
20
-57.7999
11
91.5775
21
-57.7054
0
LINE
8
BLACK
6
CONTINUOUS
10
91.5775
20
-57.7054
11
91.4986
21
-57.6265
0
LINE
8
BLACK
6
CONTINUOUS
10
91.4986
20
-57.6265
11
91.4041
21
-57.5672
0
LINE
8
BLACK
6
CONTINUOUS
10
91.4041
20
-57.5672
11
91.2988
21
-57.5304
0
LINE
8
BLACK
6
CONTINUOUS
10
91.2988
20
-57.5304
11
91.192
21
-57.5183
0
LINE
8
BLACK
6
CONTINUOUS
10
91.192
20
-57.5183
11
91.1915
21
-57.5195
0
LINE
8
BLACK
6
CONTINUOUS
10
91.1915
20
-57.5195
11
91.188
21
-57.521
0
LINE
8
BLACK
6
CONTINUOUS
10
91.188
20
-57.521
11
91.188
21
-57.521
0
LINE
8
BLACK
6
CONTINUOUS
10
91.188
20
-57.521
11
78.188
21
-57.521
0
LINE
8
BLACK
6
CONTINUOUS
10
78.188
20
-57.521
11
78.188
21
-57.521
0
LINE
8
BLACK
6
CONTINUOUS
10
78.188
20
-57.521
11
78.1845
21
-57.5195
0
LINE
8
BLACK
6
CONTINUOUS
10
78.1845
20
-57.5195
11
78.184
21
-57.5183
0
LINE
8
BLACK
6
CONTINUOUS
10
78.184
20
-57.5183
11
78.0772
21
-57.5304
0
LINE
8
BLACK
6
CONTINUOUS
10
78.0772
20
-57.5304
11
77.9719
21
-57.5672
0
LINE
8
BLACK
6
CONTINUOUS
10
77.9719
20
-57.5672
11
77.8774
21
-57.6265
0
LINE
8
BLACK
6
CONTINUOUS
10
77.8774
20
-57.6265
11
77.7985
21
-57.7054
0
LINE
8
BLACK
6
CONTINUOUS
10
77.7985
20
-57.7054
11
77.7392
21
-57.7999
0
LINE
8
BLACK
6
CONTINUOUS
10
77.7392
20
-57.7999
11
77.7024
21
-57.9052
0
LINE
8
BLACK
6
CONTINUOUS
10
77.7024
20
-57.9052
11
77.6903
21
-58.012
0
LINE
8
BLACK
6
CONTINUOUS
10
77.6903
20
-58.012
11
77.6915
21
-58.0125
0
LINE
8
BLACK
6
CONTINUOUS
10
77.6915
20
-58.0125
11
77.693
21
-58.016
0
LINE
8
BLACK
6
CONTINUOUS
10
77.693
20
-58.016
11
77.693
21
-58.016
0
LINE
8
BLACK
6
CONTINUOUS
10
77.693
20
-58.016
11
77.693
21
-71.0069
0
LINE
8
BLACK
6
CONTINUOUS
10
77.693
20
-71.0069
11
77.693
21
-71.0069
0
LINE
8
BLACK
6
CONTINUOUS
10
77.693
20
-71.0069
11
77.6915
21
-71.0105
0
LINE
8
BLACK
6
CONTINUOUS
10
77.6915
20
-71.0105
11
77.6903
21
-71.011
0
LINE
8
BLACK
6
CONTINUOUS
10
77.6903
20
-71.011
11
77.7024
21
-71.1178
0
LINE
8
BLACK
6
CONTINUOUS
10
77.7024
20
-71.1178
11
77.7392
21
-71.2231
0
LINE
8
BLACK
6
CONTINUOUS
10
77.7392
20
-71.2231
11
77.7985
21
-71.3175
0
LINE
8
BLACK
6
CONTINUOUS
10
77.7985
20
-71.3175
11
77.8774
21
-71.3964
0
LINE
8
BLACK
6
CONTINUOUS
10
77.8774
20
-71.3964
11
77.9719
21
-71.4557
0
LINE
8
BLACK
6
CONTINUOUS
10
77.9719
20
-71.4557
11
78.0772
21
-71.4926
0
LINE
8
BLACK
6
CONTINUOUS
10
78.0772
20
-71.4926
11
78.184
21
-71.5046
0
LINE
8
BLACK
6
CONTINUOUS
10
78.184
20
-71.5046
11
78.1845
21
-71.5034
0
LINE
8
BLACK
6
CONTINUOUS
10
78.1845
20
-71.5034
11
78.1845
21
-71.5034
0
LINE
8
BLACK
6
CONTINUOUS
10
78.1845
20
-71.5034
11
78.1857
21
-71.5029
0
LINE
8
BLACK
6
CONTINUOUS
10
55.2984
20
-48.3797
11
55.4051
21
-48.417
0
LINE
8
BLACK
6
CONTINUOUS
10
55.4051
20
-48.417
11
55.5009
21
-48.4772
0
LINE
8
BLACK
6
CONTINUOUS
10
55.5009
20
-48.4772
11
55.5808
21
-48.5571
0
LINE
8
BLACK
6
CONTINUOUS
10
55.5808
20
-48.5571
11
55.641
21
-48.6529
0
LINE
8
BLACK
6
CONTINUOUS
10
55.641
20
-48.6529
11
55.6783
21
-48.7596
0
LINE
8
BLACK
6
CONTINUOUS
10
55.6783
20
-48.7596
11
55.691
21
-48.872
0
LINE
8
BLACK
6
CONTINUOUS
10
55.691
20
-48.872
11
55.691
21
-48.872
0
LINE
8
BLACK
6
CONTINUOUS
10
55.691
20
-48.872
11
55.691
21
-61.872
0
LINE
8
BLACK
6
CONTINUOUS
10
55.691
20
-61.872
11
55.691
21
-61.872
0
LINE
8
BLACK
6
CONTINUOUS
10
55.691
20
-61.872
11
55.6783
21
-61.9844
0
LINE
8
BLACK
6
CONTINUOUS
10
55.6783
20
-61.9844
11
55.641
21
-62.0911
0
LINE
8
BLACK
6
CONTINUOUS
10
55.641
20
-62.0911
11
55.5808
21
-62.1869
0
LINE
8
BLACK
6
CONTINUOUS
10
55.5808
20
-62.1869
11
55.5009
21
-62.2668
0
LINE
8
BLACK
6
CONTINUOUS
10
55.5009
20
-62.2668
11
55.4051
21
-62.327
0
LINE
8
BLACK
6
CONTINUOUS
10
55.4051
20
-62.327
11
55.2984
21
-62.3643
0
LINE
8
BLACK
6
CONTINUOUS
10
55.2984
20
-62.3643
11
55.186
21
-62.377
0
LINE
8
BLACK
6
CONTINUOUS
10
55.186
20
-62.377
11
55.186
21
-62.377
0
LINE
8
BLACK
6
CONTINUOUS
10
55.186
20
-62.377
11
55.186
21
-62.377
0
LINE
8
BLACK
6
CONTINUOUS
10
55.186
20
-62.377
11
42.186
21
-62.3679
0
LINE
8
BLACK
6
CONTINUOUS
10
42.186
20
-62.3679
11
42.186
21
-62.3679
0
LINE
8
BLACK
6
CONTINUOUS
10
42.186
20
-62.3679
11
42.0736
21
-62.3553
0
LINE
8
BLACK
6
CONTINUOUS
10
42.0736
20
-62.3553
11
41.9669
21
-62.3179
0
LINE
8
BLACK
6
CONTINUOUS
10
41.9669
20
-62.3179
11
41.8711
21
-62.2578
0
LINE
8
BLACK
6
CONTINUOUS
10
41.8711
20
-62.2578
11
41.7912
21
-62.1778
0
LINE
8
BLACK
6
CONTINUOUS
10
41.7912
20
-62.1778
11
41.731
21
-62.082
0
LINE
8
BLACK
6
CONTINUOUS
10
41.731
20
-62.082
11
41.6937
21
-61.9753
0
LINE
8
BLACK
6
CONTINUOUS
10
41.6937
20
-61.9753
11
41.681
21
-61.8629
0
LINE
8
BLACK
6
CONTINUOUS
10
41.681
20
-61.8629
11
41.681
21
-61.8629
0
LINE
8
BLACK
6
CONTINUOUS
10
41.681
20
-61.8629
11
41.681
21
-48.872
0
LINE
8
BLACK
6
CONTINUOUS
10
41.681
20
-48.872
11
41.681
21
-48.872
0
LINE
8
BLACK
6
CONTINUOUS
10
41.681
20
-48.872
11
41.6937
21
-48.7596
0
LINE
8
BLACK
6
CONTINUOUS
10
41.6937
20
-48.7596
11
41.731
21
-48.6529
0
LINE
8
BLACK
6
CONTINUOUS
10
41.731
20
-48.6529
11
41.7912
21
-48.5571
0
LINE
8
BLACK
6
CONTINUOUS
10
41.7912
20
-48.5571
11
41.8711
21
-48.4772
0
LINE
8
BLACK
6
CONTINUOUS
10
41.8711
20
-48.4772
11
41.9669
21
-48.417
0
LINE
8
BLACK
6
CONTINUOUS
10
41.9669
20
-48.417
11
42.0736
21
-48.3797
0
LINE
8
BLACK
6
CONTINUOUS
10
42.0736
20
-48.3797
11
42.186
21
-48.367
0
LINE
8
BLACK
6
CONTINUOUS
10
42.186
20
-48.367
11
42.186
21
-48.367
0
LINE
8
BLACK
6
CONTINUOUS
10
42.186
20
-48.367
11
55.186
21
-48.367
0
LINE
8
BLACK
6
CONTINUOUS
10
55.186
20
-48.367
11
55.186
21
-48.367
0
LINE
8
BLACK
6
CONTINUOUS
10
55.186
20
-48.367
11
55.2984
21
-48.3797
0
LINE
8
BLACK
6
CONTINUOUS
10
42.1837
20
-62.3589
11
42.186
21
-62.3579
0
LINE
8
BLACK
6
CONTINUOUS
10
42.186
20
-62.3579
11
42.186
21
-62.3579
0
LINE
8
BLACK
6
CONTINUOUS
10
42.186
20
-62.3579
11
55.186
21
-62.367
0
LINE
8
BLACK
6
CONTINUOUS
10
55.186
20
-62.367
11
55.186
21
-62.367
0
LINE
8
BLACK
6
CONTINUOUS
10
55.186
20
-62.367
11
55.186
21
-62.367
0
LINE
8
BLACK
6
CONTINUOUS
10
55.186
20
-62.367
11
55.186
21
-62.367
0
LINE
8
BLACK
6
CONTINUOUS
10
55.186
20
-62.367
11
55.1866
21
-62.3672
0
LINE
8
BLACK
6
CONTINUOUS
10
55.1866
20
-62.3672
11
55.1895
21
-62.3685
0
LINE
8
BLACK
6
CONTINUOUS
10
55.1895
20
-62.3685
11
55.1895
21
-62.3685
0
LINE
8
BLACK
6
CONTINUOUS
10
55.1895
20
-62.3685
11
55.19
21
-62.3697
0
LINE
8
BLACK
6
CONTINUOUS
10
55.19
20
-62.3697
11
55.2968
21
-62.3576
0
LINE
8
BLACK
6
CONTINUOUS
10
55.2968
20
-62.3576
11
55.4021
21
-62.3208
0
LINE
8
BLACK
6
CONTINUOUS
10
55.4021
20
-62.3208
11
55.4966
21
-62.2615
0
LINE
8
BLACK
6
CONTINUOUS
10
55.4966
20
-62.2615
11
55.5755
21
-62.1826
0
LINE
8
BLACK
6
CONTINUOUS
10
55.5755
20
-62.1826
11
55.6348
21
-62.0881
0
LINE
8
BLACK
6
CONTINUOUS
10
55.6348
20
-62.0881
11
55.6716
21
-61.9828
0
LINE
8
BLACK
6
CONTINUOUS
10
55.6716
20
-61.9828
11
55.6837
21
-61.876
0
LINE
8
BLACK
6
CONTINUOUS
10
55.6837
20
-61.876
11
55.6825
21
-61.8755
0
LINE
8
BLACK
6
CONTINUOUS
10
55.6825
20
-61.8755
11
55.681
21
-61.872
0
LINE
8
BLACK
6
CONTINUOUS
10
55.681
20
-61.872
11
55.681
21
-61.872
0
LINE
8
BLACK
6
CONTINUOUS
10
55.681
20
-61.872
11
55.681
21
-48.872
0
LINE
8
BLACK
6
CONTINUOUS
10
55.681
20
-48.872
11
55.681
21
-48.872
0
LINE
8
BLACK
6
CONTINUOUS
10
55.681
20
-48.872
11
55.6825
21
-48.8685
0
LINE
8
BLACK
6
CONTINUOUS
10
55.6825
20
-48.8685
11
55.6837
21
-48.868
0
LINE
8
BLACK
6
CONTINUOUS
10
55.6837
20
-48.868
11
55.6716
21
-48.7612
0
LINE
8
BLACK
6
CONTINUOUS
10
55.6716
20
-48.7612
11
55.6348
21
-48.6559
0
LINE
8
BLACK
6
CONTINUOUS
10
55.6348
20
-48.6559
11
55.5755
21
-48.5614
0
LINE
8
BLACK
6
CONTINUOUS
10
55.5755
20
-48.5614
11
55.4966
21
-48.4825
0
LINE
8
BLACK
6
CONTINUOUS
10
55.4966
20
-48.4825
11
55.4021
21
-48.4232
0
LINE
8
BLACK
6
CONTINUOUS
10
55.4021
20
-48.4232
11
55.2968
21
-48.3864
0
LINE
8
BLACK
6
CONTINUOUS
10
55.2968
20
-48.3864
11
55.19
21
-48.3743
0
LINE
8
BLACK
6
CONTINUOUS
10
55.19
20
-48.3743
11
55.1895
21
-48.3755
0
LINE
8
BLACK
6
CONTINUOUS
10
55.1895
20
-48.3755
11
55.186
21
-48.377
0
LINE
8
BLACK
6
CONTINUOUS
10
55.186
20
-48.377
11
55.186
21
-48.377
0
LINE
8
BLACK
6
CONTINUOUS
10
55.186
20
-48.377
11
42.186
21
-48.377
0
LINE
8
BLACK
6
CONTINUOUS
10
42.186
20
-48.377
11
42.186
21
-48.377
0
LINE
8
BLACK
6
CONTINUOUS
10
42.186
20
-48.377
11
42.1825
21
-48.3755
0
LINE
8
BLACK
6
CONTINUOUS
10
42.1825
20
-48.3755
11
42.182
21
-48.3743
0
LINE
8
BLACK
6
CONTINUOUS
10
42.182
20
-48.3743
11
42.0752
21
-48.3864
0
LINE
8
BLACK
6
CONTINUOUS
10
42.0752
20
-48.3864
11
41.9699
21
-48.4232
0
LINE
8
BLACK
6
CONTINUOUS
10
41.9699
20
-48.4232
11
41.8754
21
-48.4825
0
LINE
8
BLACK
6
CONTINUOUS
10
41.8754
20
-48.4825
11
41.7965
21
-48.5614
0
LINE
8
BLACK
6
CONTINUOUS
10
41.7965
20
-48.5614
11
41.7372
21
-48.6559
0
LINE
8
BLACK
6
CONTINUOUS
10
41.7372
20
-48.6559
11
41.7004
21
-48.7612
0
LINE
8
BLACK
6
CONTINUOUS
10
41.7004
20
-48.7612
11
41.6883
21
-48.868
0
LINE
8
BLACK
6
CONTINUOUS
10
41.6883
20
-48.868
11
41.6895
21
-48.8685
0
LINE
8
BLACK
6
CONTINUOUS
10
41.6895
20
-48.8685
11
41.691
21
-48.872
0
LINE
8
BLACK
6
CONTINUOUS
10
41.691
20
-48.872
11
41.691
21
-48.872
0
LINE
8
BLACK
6
CONTINUOUS
10
41.691
20
-48.872
11
41.691
21
-61.8629
0
LINE
8
BLACK
6
CONTINUOUS
10
41.691
20
-61.8629
11
41.691
21
-61.8629
0
LINE
8
BLACK
6
CONTINUOUS
10
41.691
20
-61.8629
11
41.6895
21
-61.8665
0
LINE
8
BLACK
6
CONTINUOUS
10
41.6895
20
-61.8665
11
41.6883
21
-61.867
0
LINE
8
BLACK
6
CONTINUOUS
10
41.6883
20
-61.867
11
41.7004
21
-61.9738
0
LINE
8
BLACK
6
CONTINUOUS
10
41.7004
20
-61.9738
11
41.7372
21
-62.0791
0
LINE
8
BLACK
6
CONTINUOUS
10
41.7372
20
-62.0791
11
41.7965
21
-62.1735
0
LINE
8
BLACK
6
CONTINUOUS
10
41.7965
20
-62.1735
11
41.8754
21
-62.2524
0
LINE
8
BLACK
6
CONTINUOUS
10
41.8754
20
-62.2524
11
41.9699
21
-62.3117
0
LINE
8
BLACK
6
CONTINUOUS
10
41.9699
20
-62.3117
11
42.0752
21
-62.3486
0
LINE
8
BLACK
6
CONTINUOUS
10
42.0752
20
-62.3486
11
42.182
21
-62.3606
0
LINE
8
BLACK
6
CONTINUOUS
10
42.182
20
-62.3606
11
42.1825
21
-62.3594
0
LINE
8
BLACK
6
CONTINUOUS
10
42.1825
20
-62.3594
11
42.1825
21
-62.3594
0
LINE
8
BLACK
6
CONTINUOUS
10
42.1825
20
-62.3594
11
42.1837
21
-62.3589
0
LINE
8
BLACK
6
CONTINUOUS
10
96.214
20
-47.351
11
109.214
21
-47.3601
0
LINE
8
BLACK
6
CONTINUOUS
10
109.214
20
-47.3601
11
109.214
21
-47.3601
0
LINE
8
BLACK
6
CONTINUOUS
10
109.214
20
-47.3601
11
109.326
21
-47.3727
0
LINE
8
BLACK
6
CONTINUOUS
10
109.326
20
-47.3727
11
109.433
21
-47.4101
0
LINE
8
BLACK
6
CONTINUOUS
10
109.433
20
-47.4101
11
109.529
21
-47.4702
0
LINE
8
BLACK
6
CONTINUOUS
10
109.529
20
-47.4702
11
109.609
21
-47.5502
0
LINE
8
BLACK
6
CONTINUOUS
10
109.609
20
-47.5502
11
109.669
21
-47.646
0
LINE
8
BLACK
6
CONTINUOUS
10
109.669
20
-47.646
11
109.706
21
-47.7527
0
LINE
8
BLACK
6
CONTINUOUS
10
109.706
20
-47.7527
11
109.719
21
-47.8651
0
LINE
8
BLACK
6
CONTINUOUS
10
109.719
20
-47.8651
11
109.719
21
-47.8651
0
LINE
8
BLACK
6
CONTINUOUS
10
109.719
20
-47.8651
11
109.719
21
-60.856
0
LINE
8
BLACK
6
CONTINUOUS
10
109.719
20
-60.856
11
109.719
21
-60.856
0
LINE
8
BLACK
6
CONTINUOUS
10
109.719
20
-60.856
11
109.706
21
-60.9684
0
LINE
8
BLACK
6
CONTINUOUS
10
109.706
20
-60.9684
11
109.669
21
-61.0751
0
LINE
8
BLACK
6
CONTINUOUS
10
109.669
20
-61.0751
11
109.609
21
-61.1709
0
LINE
8
BLACK
6
CONTINUOUS
10
109.609
20
-61.1709
11
109.529
21
-61.2508
0
LINE
8
BLACK
6
CONTINUOUS
10
109.529
20
-61.2508
11
109.433
21
-61.311
0
LINE
8
BLACK
6
CONTINUOUS
10
109.433
20
-61.311
11
109.326
21
-61.3483
0
LINE
8
BLACK
6
CONTINUOUS
10
109.326
20
-61.3483
11
109.214
21
-61.361
0
LINE
8
BLACK
6
CONTINUOUS
10
109.214
20
-61.361
11
109.214
21
-61.361
0
LINE
8
BLACK
6
CONTINUOUS
10
109.214
20
-61.361
11
96.214
21
-61.361
0
LINE
8
BLACK
6
CONTINUOUS
10
96.214
20
-61.361
11
96.214
21
-61.361
0
LINE
8
BLACK
6
CONTINUOUS
10
96.214
20
-61.361
11
96.1016
21
-61.3483
0
LINE
8
BLACK
6
CONTINUOUS
10
96.1016
20
-61.3483
11
95.9949
21
-61.311
0
LINE
8
BLACK
6
CONTINUOUS
10
95.9949
20
-61.311
11
95.8991
21
-61.2508
0
LINE
8
BLACK
6
CONTINUOUS
10
95.8991
20
-61.2508
11
95.8192
21
-61.1709
0
LINE
8
BLACK
6
CONTINUOUS
10
95.8192
20
-61.1709
11
95.759
21
-61.0751
0
LINE
8
BLACK
6
CONTINUOUS
10
95.759
20
-61.0751
11
95.7217
21
-60.9684
0
LINE
8
BLACK
6
CONTINUOUS
10
95.7217
20
-60.9684
11
95.709
21
-60.856
0
LINE
8
BLACK
6
CONTINUOUS
10
95.709
20
-60.856
11
95.709
21
-60.856
0
LINE
8
BLACK
6
CONTINUOUS
10
95.709
20
-60.856
11
95.709
21
-47.856
0
LINE
8
BLACK
6
CONTINUOUS
10
95.709
20
-47.856
11
95.709
21
-47.856
0
LINE
8
BLACK
6
CONTINUOUS
10
95.709
20
-47.856
11
95.7217
21
-47.7436
0
LINE
8
BLACK
6
CONTINUOUS
10
95.7217
20
-47.7436
11
95.759
21
-47.6369
0
LINE
8
BLACK
6
CONTINUOUS
10
95.759
20
-47.6369
11
95.8192
21
-47.5411
0
LINE
8
BLACK
6
CONTINUOUS
10
95.8192
20
-47.5411
11
95.8991
21
-47.4612
0
LINE
8
BLACK
6
CONTINUOUS
10
95.8991
20
-47.4612
11
95.9949
21
-47.401
0
LINE
8
BLACK
6
CONTINUOUS
10
95.9949
20
-47.401
11
96.1016
21
-47.3637
0
LINE
8
BLACK
6
CONTINUOUS
10
96.1016
20
-47.3637
11
96.214
21
-47.351
0
LINE
8
BLACK
6
CONTINUOUS
10
96.214
20
-47.351
11
96.214
21
-47.351
0
LINE
8
BLACK
6
CONTINUOUS
10
96.21
20
-47.3583
11
96.1032
21
-47.3704
0
LINE
8
BLACK
6
CONTINUOUS
10
96.1032
20
-47.3704
11
95.9979
21
-47.4072
0
LINE
8
BLACK
6
CONTINUOUS
10
95.9979
20
-47.4072
11
95.9034
21
-47.4665
0
LINE
8
BLACK
6
CONTINUOUS
10
95.9034
20
-47.4665
11
95.8245
21
-47.5454
0
LINE
8
BLACK
6
CONTINUOUS
10
95.8245
20
-47.5454
11
95.7652
21
-47.6399
0
LINE
8
BLACK
6
CONTINUOUS
10
95.7652
20
-47.6399
11
95.7284
21
-47.7452
0
LINE
8
BLACK
6
CONTINUOUS
10
95.7284
20
-47.7452
11
95.7163
21
-47.852
0
LINE
8
BLACK
6
CONTINUOUS
10
95.7163
20
-47.852
11
95.7175
21
-47.8525
0
LINE
8
BLACK
6
CONTINUOUS
10
95.7175
20
-47.8525
11
95.719
21
-47.856
0
LINE
8
BLACK
6
CONTINUOUS
10
95.719
20
-47.856
11
95.719
21
-47.856
0
LINE
8
BLACK
6
CONTINUOUS
10
95.719
20
-47.856
11
95.719
21
-60.856
0
LINE
8
BLACK
6
CONTINUOUS
10
95.719
20
-60.856
11
95.719
21
-60.856
0
LINE
8
BLACK
6
CONTINUOUS
10
95.719
20
-60.856
11
95.7175
21
-60.8595
0
LINE
8
BLACK
6
CONTINUOUS
10
95.7175
20
-60.8595
11
95.7163
21
-60.86
0
LINE
8
BLACK
6
CONTINUOUS
10
95.7163
20
-60.86
11
95.7284
21
-60.9668
0
LINE
8
BLACK
6
CONTINUOUS
10
95.7284
20
-60.9668
11
95.7652
21
-61.0721
0
LINE
8
BLACK
6
CONTINUOUS
10
95.7652
20
-61.0721
11
95.8245
21
-61.1666
0
LINE
8
BLACK
6
CONTINUOUS
10
95.8245
20
-61.1666
11
95.9034
21
-61.2455
0
LINE
8
BLACK
6
CONTINUOUS
10
95.9034
20
-61.2455
11
95.9979
21
-61.3048
0
LINE
8
BLACK
6
CONTINUOUS
10
95.9979
20
-61.3048
11
96.1032
21
-61.3416
0
LINE
8
BLACK
6
CONTINUOUS
10
96.1032
20
-61.3416
11
96.21
21
-61.3537
0
LINE
8
BLACK
6
CONTINUOUS
10
96.21
20
-61.3537
11
96.2105
21
-61.3525
0
LINE
8
BLACK
6
CONTINUOUS
10
96.2105
20
-61.3525
11
96.214
21
-61.351
0
LINE
8
BLACK
6
CONTINUOUS
10
96.214
20
-61.351
11
96.214
21
-61.351
0
LINE
8
BLACK
6
CONTINUOUS
10
96.214
20
-61.351
11
109.214
21
-61.351
0
LINE
8
BLACK
6
CONTINUOUS
10
109.214
20
-61.351
11
109.214
21
-61.351
0
LINE
8
BLACK
6
CONTINUOUS
10
109.214
20
-61.351
11
109.218
21
-61.3525
0
LINE
8
BLACK
6
CONTINUOUS
10
109.218
20
-61.3525
11
109.218
21
-61.3537
0
LINE
8
BLACK
6
CONTINUOUS
10
109.218
20
-61.3537
11
109.325
21
-61.3416
0
LINE
8
BLACK
6
CONTINUOUS
10
109.325
20
-61.3416
11
109.43
21
-61.3048
0
LINE
8
BLACK
6
CONTINUOUS
10
109.43
20
-61.3048
11
109.525
21
-61.2455
0
LINE
8
BLACK
6
CONTINUOUS
10
109.525
20
-61.2455
11
109.603
21
-61.1666
0
LINE
8
BLACK
6
CONTINUOUS
10
109.603
20
-61.1666
11
109.663
21
-61.0721
0
LINE
8
BLACK
6
CONTINUOUS
10
109.663
20
-61.0721
11
109.7
21
-60.9668
0
LINE
8
BLACK
6
CONTINUOUS
10
109.7
20
-60.9668
11
109.712
21
-60.86
0
LINE
8
BLACK
6
CONTINUOUS
10
109.712
20
-60.86
11
109.71
21
-60.8595
0
LINE
8
BLACK
6
CONTINUOUS
10
109.71
20
-60.8595
11
109.709
21
-60.856
0
LINE
8
BLACK
6
CONTINUOUS
10
109.709
20
-60.856
11
109.709
21
-60.856
0
LINE
8
BLACK
6
CONTINUOUS
10
109.709
20
-60.856
11
109.709
21
-47.8651
0
LINE
8
BLACK
6
CONTINUOUS
10
109.709
20
-47.8651
11
109.709
21
-47.8651
0
LINE
8
BLACK
6
CONTINUOUS
10
109.709
20
-47.8651
11
109.71
21
-47.8615
0
LINE
8
BLACK
6
CONTINUOUS
10
109.71
20
-47.8615
11
109.712
21
-47.861
0
LINE
8
BLACK
6
CONTINUOUS
10
109.712
20
-47.861
11
109.7
21
-47.7542
0
LINE
8
BLACK
6
CONTINUOUS
10
109.7
20
-47.7542
11
109.663
21
-47.6489
0
LINE
8
BLACK
6
CONTINUOUS
10
109.663
20
-47.6489
11
109.603
21
-47.5545
0
LINE
8
BLACK
6
CONTINUOUS
10
109.603
20
-47.5545
11
109.525
21
-47.4756
0
LINE
8
BLACK
6
CONTINUOUS
10
109.525
20
-47.4756
11
109.43
21
-47.4163
0
LINE
8
BLACK
6
CONTINUOUS
10
109.43
20
-47.4163
11
109.325
21
-47.3794
0
LINE
8
BLACK
6
CONTINUOUS
10
109.325
20
-47.3794
11
109.218
21
-47.3674
0
LINE
8
BLACK
6
CONTINUOUS
10
109.218
20
-47.3674
11
109.218
21
-47.3686
0
LINE
8
BLACK
6
CONTINUOUS
10
109.218
20
-47.3686
11
109.218
21
-47.3686
0
LINE
8
BLACK
6
CONTINUOUS
10
109.218
20
-47.3686
11
109.218
21
-47.3686
0
LINE
8
BLACK
6
CONTINUOUS
10
109.218
20
-47.3686
11
109.217
21
-47.3689
0
LINE
8
BLACK
6
CONTINUOUS
10
109.217
20
-47.3689
11
109.214
21
-47.3701
0
LINE
8
BLACK
6
CONTINUOUS
10
109.214
20
-47.3701
11
109.214
21
-47.3701
0
LINE
8
BLACK
6
CONTINUOUS
10
109.214
20
-47.3701
11
109.214
21
-47.3701
0
LINE
8
BLACK
6
CONTINUOUS
10
109.214
20
-47.3701
11
96.214
21
-47.361
0
LINE
8
BLACK
6
CONTINUOUS
10
96.214
20
-47.361
11
96.214
21
-47.361
0
LINE
8
BLACK
6
CONTINUOUS
10
96.214
20
-47.361
11
96.214
21
-47.361
0
LINE
8
BLACK
6
CONTINUOUS
10
96.214
20
-47.361
11
96.214
21
-47.361
0
LINE
8
BLACK
6
CONTINUOUS
10
96.214
20
-47.361
11
96.2134
21
-47.3608
0
LINE
8
BLACK
6
CONTINUOUS
10
96.2134
20
-47.3608
11
96.2105
21
-47.3595
0
LINE
8
BLACK
6
CONTINUOUS
10
96.2105
20
-47.3595
11
96.2105
21
-47.3595
0
LINE
8
BLACK
6
CONTINUOUS
10
96.2105
20
-47.3595
11
96.21
21
-47.3583
0
LINE
8
BLACK
6
CONTINUOUS
10
60.2
20
-45.827
11
73.2
21
-45.8361
0
LINE
8
BLACK
6
CONTINUOUS
10
73.2
20
-45.8361
11
73.2
21
-45.8361
0
LINE
8
BLACK
6
CONTINUOUS
10
73.2
20
-45.8361
11
73.3124
21
-45.8487
0
LINE
8
BLACK
6
CONTINUOUS
10
73.3124
20
-45.8487
11
73.4191
21
-45.8861
0
LINE
8
BLACK
6
CONTINUOUS
10
73.4191
20
-45.8861
11
73.5149
21
-45.9462
0
LINE
8
BLACK
6
CONTINUOUS
10
73.5149
20
-45.9462
11
73.5948
21
-46.0262
0
LINE
8
BLACK
6
CONTINUOUS
10
73.5948
20
-46.0262
11
73.655
21
-46.122
0
LINE
8
BLACK
6
CONTINUOUS
10
73.655
20
-46.122
11
73.6923
21
-46.2287
0
LINE
8
BLACK
6
CONTINUOUS
10
73.6923
20
-46.2287
11
73.705
21
-46.3411
0
LINE
8
BLACK
6
CONTINUOUS
10
73.705
20
-46.3411
11
73.705
21
-46.3411
0
LINE
8
BLACK
6
CONTINUOUS
10
73.705
20
-46.3411
11
73.705
21
-59.332
0
LINE
8
BLACK
6
CONTINUOUS
10
73.705
20
-59.332
11
73.705
21
-59.332
0
LINE
8
BLACK
6
CONTINUOUS
10
73.705
20
-59.332
11
73.6923
21
-59.4444
0
LINE
8
BLACK
6
CONTINUOUS
10
73.6923
20
-59.4444
11
73.655
21
-59.5511
0
LINE
8
BLACK
6
CONTINUOUS
10
73.655
20
-59.5511
11
73.5948
21
-59.6469
0
LINE
8
BLACK
6
CONTINUOUS
10
73.5948
20
-59.6469
11
73.5149
21
-59.7268
0
LINE
8
BLACK
6
CONTINUOUS
10
73.5149
20
-59.7268
11
73.4191
21
-59.787
0
LINE
8
BLACK
6
CONTINUOUS
10
73.4191
20
-59.787
11
73.3124
21
-59.8243
0
LINE
8
BLACK
6
CONTINUOUS
10
73.3124
20
-59.8243
11
73.2
21
-59.837
0
LINE
8
BLACK
6
CONTINUOUS
10
73.2
20
-59.837
11
73.2
21
-59.837
0
LINE
8
BLACK
6
CONTINUOUS
10
73.2
20
-59.837
11
60.2
21
-59.837
0
LINE
8
BLACK
6
CONTINUOUS
10
60.2
20
-59.837
11
60.2
21
-59.837
0
LINE
8
BLACK
6
CONTINUOUS
10
60.2
20
-59.837
11
60.0876
21
-59.8243
0
LINE
8
BLACK
6
CONTINUOUS
10
60.0876
20
-59.8243
11
59.9809
21
-59.787
0
LINE
8
BLACK
6
CONTINUOUS
10
59.9809
20
-59.787
11
59.8851
21
-59.7268
0
LINE
8
BLACK
6
CONTINUOUS
10
59.8851
20
-59.7268
11
59.8052
21
-59.6469
0
LINE
8
BLACK
6
CONTINUOUS
10
59.8052
20
-59.6469
11
59.745
21
-59.5511
0
LINE
8
BLACK
6
CONTINUOUS
10
59.745
20
-59.5511
11
59.7077
21
-59.4444
0
LINE
8
BLACK
6
CONTINUOUS
10
59.7077
20
-59.4444
11
59.695
21
-59.332
0
LINE
8
BLACK
6
CONTINUOUS
10
59.695
20
-59.332
11
59.695
21
-59.332
0
LINE
8
BLACK
6
CONTINUOUS
10
59.695
20
-59.332
11
59.695
21
-46.332
0
LINE
8
BLACK
6
CONTINUOUS
10
59.695
20
-46.332
11
59.695
21
-46.332
0
LINE
8
BLACK
6
CONTINUOUS
10
59.695
20
-46.332
11
59.7077
21
-46.2196
0
LINE
8
BLACK
6
CONTINUOUS
10
59.7077
20
-46.2196
11
59.745
21
-46.1129
0
LINE
8
BLACK
6
CONTINUOUS
10
59.745
20
-46.1129
11
59.8052
21
-46.0171
0
LINE
8
BLACK
6
CONTINUOUS
10
59.8052
20
-46.0171
11
59.8851
21
-45.9372
0
LINE
8
BLACK
6
CONTINUOUS
10
59.8851
20
-45.9372
11
59.9809
21
-45.877
0
LINE
8
BLACK
6
CONTINUOUS
10
59.9809
20
-45.877
11
60.0876
21
-45.8397
0
LINE
8
BLACK
6
CONTINUOUS
10
60.0876
20
-45.8397
11
60.2
21
-45.827
0
LINE
8
BLACK
6
CONTINUOUS
10
60.2
20
-45.827
11
60.2
21
-45.827
0
LINE
8
BLACK
6
CONTINUOUS
10
60.196
20
-45.8343
11
60.0892
21
-45.8464
0
LINE
8
BLACK
6
CONTINUOUS
10
60.0892
20
-45.8464
11
59.9839
21
-45.8832
0
LINE
8
BLACK
6
CONTINUOUS
10
59.9839
20
-45.8832
11
59.8894
21
-45.9425
0
LINE
8
BLACK
6
CONTINUOUS
10
59.8894
20
-45.9425
11
59.8105
21
-46.0214
0
LINE
8
BLACK
6
CONTINUOUS
10
59.8105
20
-46.0214
11
59.7512
21
-46.1159
0
LINE
8
BLACK
6
CONTINUOUS
10
59.7512
20
-46.1159
11
59.7144
21
-46.2212
0
LINE
8
BLACK
6
CONTINUOUS
10
59.7144
20
-46.2212
11
59.7023
21
-46.328
0
LINE
8
BLACK
6
CONTINUOUS
10
59.7023
20
-46.328
11
59.7035
21
-46.3285
0
LINE
8
BLACK
6
CONTINUOUS
10
59.7035
20
-46.3285
11
59.705
21
-46.332
0
LINE
8
BLACK
6
CONTINUOUS
10
59.705
20
-46.332
11
59.705
21
-46.332
0
LINE
8
BLACK
6
CONTINUOUS
10
59.705
20
-46.332
11
59.705
21
-59.332
0
LINE
8
BLACK
6
CONTINUOUS
10
59.705
20
-59.332
11
59.705
21
-59.332
0
LINE
8
BLACK
6
CONTINUOUS
10
59.705
20
-59.332
11
59.7035
21
-59.3355
0
LINE
8
BLACK
6
CONTINUOUS
10
59.7035
20
-59.3355
11
59.7023
21
-59.336
0
LINE
8
BLACK
6
CONTINUOUS
10
59.7023
20
-59.336
11
59.7144
21
-59.4428
0
LINE
8
BLACK
6
CONTINUOUS
10
59.7144
20
-59.4428
11
59.7512
21
-59.5481
0
LINE
8
BLACK
6
CONTINUOUS
10
59.7512
20
-59.5481
11
59.8105
21
-59.6426
0
LINE
8
BLACK
6
CONTINUOUS
10
59.8105
20
-59.6426
11
59.8894
21
-59.7215
0
LINE
8
BLACK
6
CONTINUOUS
10
59.8894
20
-59.7215
11
59.9839
21
-59.7808
0
LINE
8
BLACK
6
CONTINUOUS
10
59.9839
20
-59.7808
11
60.0892
21
-59.8176
0
LINE
8
BLACK
6
CONTINUOUS
10
60.0892
20
-59.8176
11
60.196
21
-59.8297
0
LINE
8
BLACK
6
CONTINUOUS
10
60.196
20
-59.8297
11
60.1965
21
-59.8285
0
LINE
8
BLACK
6
CONTINUOUS
10
60.1965
20
-59.8285
11
60.2
21
-59.827
0
LINE
8
BLACK
6
CONTINUOUS
10
60.2
20
-59.827
11
60.2
21
-59.827
0
LINE
8
BLACK
6
CONTINUOUS
10
60.2
20
-59.827
11
73.2
21
-59.827
0
LINE
8
BLACK
6
CONTINUOUS
10
73.2
20
-59.827
11
73.2
21
-59.827
0
LINE
8
BLACK
6
CONTINUOUS
10
73.2
20
-59.827
11
73.2035
21
-59.8285
0
LINE
8
BLACK
6
CONTINUOUS
10
73.2035
20
-59.8285
11
73.204
21
-59.8297
0
LINE
8
BLACK
6
CONTINUOUS
10
73.204
20
-59.8297
11
73.3108
21
-59.8176
0
LINE
8
BLACK
6
CONTINUOUS
10
73.3108
20
-59.8176
11
73.4161
21
-59.7808
0
LINE
8
BLACK
6
CONTINUOUS
10
73.4161
20
-59.7808
11
73.5106
21
-59.7215
0
LINE
8
BLACK
6
CONTINUOUS
10
73.5106
20
-59.7215
11
73.5895
21
-59.6426
0
LINE
8
BLACK
6
CONTINUOUS
10
73.5895
20
-59.6426
11
73.6488
21
-59.5481
0
LINE
8
BLACK
6
CONTINUOUS
10
73.6488
20
-59.5481
11
73.6856
21
-59.4428
0
LINE
8
BLACK
6
CONTINUOUS
10
73.6856
20
-59.4428
11
73.6977
21
-59.336
0
LINE
8
BLACK
6
CONTINUOUS
10
73.6977
20
-59.336
11
73.6965
21
-59.3355
0
LINE
8
BLACK
6
CONTINUOUS
10
73.6965
20
-59.3355
11
73.695
21
-59.332
0
LINE
8
BLACK
6
CONTINUOUS
10
73.695
20
-59.332
11
73.695
21
-59.332
0
LINE
8
BLACK
6
CONTINUOUS
10
73.695
20
-59.332
11
73.695
21
-46.3411
0
LINE
8
BLACK
6
CONTINUOUS
10
73.695
20
-46.3411
11
73.695
21
-46.3411
0
LINE
8
BLACK
6
CONTINUOUS
10
73.695
20
-46.3411
11
73.6965
21
-46.3375
0
LINE
8
BLACK
6
CONTINUOUS
10
73.6965
20
-46.3375
11
73.6977
21
-46.337
0
LINE
8
BLACK
6
CONTINUOUS
10
73.6977
20
-46.337
11
73.6856
21
-46.2302
0
LINE
8
BLACK
6
CONTINUOUS
10
73.6856
20
-46.2302
11
73.6488
21
-46.1249
0
LINE
8
BLACK
6
CONTINUOUS
10
73.6488
20
-46.1249
11
73.5895
21
-46.0305
0
LINE
8
BLACK
6
CONTINUOUS
10
73.5895
20
-46.0305
11
73.5106
21
-45.9516
0
LINE
8
BLACK
6
CONTINUOUS
10
73.5106
20
-45.9516
11
73.4161
21
-45.8923
0
LINE
8
BLACK
6
CONTINUOUS
10
73.4161
20
-45.8923
11
73.3108
21
-45.8554
0
LINE
8
BLACK
6
CONTINUOUS
10
73.3108
20
-45.8554
11
73.204
21
-45.8434
0
LINE
8
BLACK
6
CONTINUOUS
10
73.204
20
-45.8434
11
73.2035
21
-45.8446
0
LINE
8
BLACK
6
CONTINUOUS
10
73.2035
20
-45.8446
11
73.2035
21
-45.8446
0
LINE
8
BLACK
6
CONTINUOUS
10
73.2035
20
-45.8446
11
73.2035
21
-45.8446
0
LINE
8
BLACK
6
CONTINUOUS
10
73.2035
20
-45.8446
11
73.2027
21
-45.8449
0
LINE
8
BLACK
6
CONTINUOUS
10
73.2027
20
-45.8449
11
73.2
21
-45.8461
0
LINE
8
BLACK
6
CONTINUOUS
10
73.2
20
-45.8461
11
73.2
21
-45.8461
0
LINE
8
BLACK
6
CONTINUOUS
10
73.2
20
-45.8461
11
73.2
21
-45.8461
0
LINE
8
BLACK
6
CONTINUOUS
10
73.2
20
-45.8461
11
60.2
21
-45.837
0
LINE
8
BLACK
6
CONTINUOUS
10
60.2
20
-45.837
11
60.2
21
-45.837
0
LINE
8
BLACK
6
CONTINUOUS
10
60.2
20
-45.837
11
60.2
21
-45.837
0
LINE
8
BLACK
6
CONTINUOUS
10
60.2
20
-45.837
11
60.2
21
-45.837
0
LINE
8
BLACK
6
CONTINUOUS
10
60.2
20
-45.837
11
60.1994
21
-45.8368
0
LINE
8
BLACK
6
CONTINUOUS
10
60.1994
20
-45.8368
11
60.1965
21
-45.8355
0
LINE
8
BLACK
6
CONTINUOUS
10
60.1965
20
-45.8355
11
60.1965
21
-45.8355
0
LINE
8
BLACK
6
CONTINUOUS
10
60.1965
20
-45.8355
11
60.196
21
-45.8343
0
LINE
8
BLACK
6
CONTINUOUS
10
114.232
20
-42.377
11
127.232
21
-42.3861
0
LINE
8
BLACK
6
CONTINUOUS
10
127.232
20
-42.3861
11
127.232
21
-42.3861
0
LINE
8
BLACK
6
CONTINUOUS
10
127.232
20
-42.3861
11
127.344
21
-42.3987
0
LINE
8
BLACK
6
CONTINUOUS
10
127.344
20
-42.3987
11
127.451
21
-42.4361
0
LINE
8
BLACK
6
CONTINUOUS
10
127.451
20
-42.4361
11
127.547
21
-42.4962
0
LINE
8
BLACK
6
CONTINUOUS
10
127.547
20
-42.4962
11
127.627
21
-42.5762
0
LINE
8
BLACK
6
CONTINUOUS
10
127.627
20
-42.5762
11
127.687
21
-42.672
0
LINE
8
BLACK
6
CONTINUOUS
10
127.687
20
-42.672
11
127.724
21
-42.7787
0
LINE
8
BLACK
6
CONTINUOUS
10
127.724
20
-42.7787
11
127.737
21
-42.8911
0
LINE
8
BLACK
6
CONTINUOUS
10
127.737
20
-42.8911
11
127.737
21
-42.8911
0
LINE
8
BLACK
6
CONTINUOUS
10
127.737
20
-42.8911
11
127.737
21
-55.882
0
LINE
8
BLACK
6
CONTINUOUS
10
127.737
20
-55.882
11
127.737
21
-55.882
0
LINE
8
BLACK
6
CONTINUOUS
10
127.737
20
-55.882
11
127.724
21
-55.9944
0
LINE
8
BLACK
6
CONTINUOUS
10
127.724
20
-55.9944
11
127.687
21
-56.1011
0
LINE
8
BLACK
6
CONTINUOUS
10
127.687
20
-56.1011
11
127.627
21
-56.1969
0
LINE
8
BLACK
6
CONTINUOUS
10
127.627
20
-56.1969
11
127.547
21
-56.2768
0
LINE
8
BLACK
6
CONTINUOUS
10
127.547
20
-56.2768
11
127.451
21
-56.337
0
LINE
8
BLACK
6
CONTINUOUS
10
127.451
20
-56.337
11
127.344
21
-56.3743
0
LINE
8
BLACK
6
CONTINUOUS
10
127.344
20
-56.3743
11
127.232
21
-56.387
0
LINE
8
BLACK
6
CONTINUOUS
10
127.232
20
-56.387
11
127.232
21
-56.387
0
LINE
8
BLACK
6
CONTINUOUS
10
127.232
20
-56.387
11
114.232
21
-56.387
0
LINE
8
BLACK
6
CONTINUOUS
10
114.232
20
-56.387
11
114.232
21
-56.387
0
LINE
8
BLACK
6
CONTINUOUS
10
114.232
20
-56.387
11
114.12
21
-56.3743
0
LINE
8
BLACK
6
CONTINUOUS
10
114.12
20
-56.3743
11
114.013
21
-56.337
0
LINE
8
BLACK
6
CONTINUOUS
10
114.013
20
-56.337
11
113.917
21
-56.2768
0
LINE
8
BLACK
6
CONTINUOUS
10
113.917
20
-56.2768
11
113.837
21
-56.1969
0
LINE
8
BLACK
6
CONTINUOUS
10
113.837
20
-56.1969
11
113.777
21
-56.1011
0
LINE
8
BLACK
6
CONTINUOUS
10
113.777
20
-56.1011
11
113.74
21
-55.9944
0
LINE
8
BLACK
6
CONTINUOUS
10
113.74
20
-55.9944
11
113.727
21
-55.882
0
LINE
8
BLACK
6
CONTINUOUS
10
113.727
20
-55.882
11
113.727
21
-55.882
0
LINE
8
BLACK
6
CONTINUOUS
10
113.727
20
-55.882
11
113.727
21
-42.882
0
LINE
8
BLACK
6
CONTINUOUS
10
113.727
20
-42.882
11
113.727
21
-42.882
0
LINE
8
BLACK
6
CONTINUOUS
10
113.727
20
-42.882
11
113.74
21
-42.7696
0
LINE
8
BLACK
6
CONTINUOUS
10
113.74
20
-42.7696
11
113.777
21
-42.6629
0
LINE
8
BLACK
6
CONTINUOUS
10
113.777
20
-42.6629
11
113.837
21
-42.5671
0
LINE
8
BLACK
6
CONTINUOUS
10
113.837
20
-42.5671
11
113.917
21
-42.4872
0
LINE
8
BLACK
6
CONTINUOUS
10
113.917
20
-42.4872
11
114.013
21
-42.427
0
LINE
8
BLACK
6
CONTINUOUS
10
114.013
20
-42.427
11
114.12
21
-42.3897
0
LINE
8
BLACK
6
CONTINUOUS
10
114.12
20
-42.3897
11
114.232
21
-42.377
0
LINE
8
BLACK
6
CONTINUOUS
10
114.232
20
-42.377
11
114.232
21
-42.377
0
LINE
8
BLACK
6
CONTINUOUS
10
114.228
20
-42.3843
11
114.121
21
-42.3964
0
LINE
8
BLACK
6
CONTINUOUS
10
114.121
20
-42.3964
11
114.016
21
-42.4332
0
LINE
8
BLACK
6
CONTINUOUS
10
114.016
20
-42.4332
11
113.921
21
-42.4925
0
LINE
8
BLACK
6
CONTINUOUS
10
113.921
20
-42.4925
11
113.843
21
-42.5714
0
LINE
8
BLACK
6
CONTINUOUS
10
113.843
20
-42.5714
11
113.783
21
-42.6659
0
LINE
8
BLACK
6
CONTINUOUS
10
113.783
20
-42.6659
11
113.746
21
-42.7712
0
LINE
8
BLACK
6
CONTINUOUS
10
113.746
20
-42.7712
11
113.734
21
-42.878
0
LINE
8
BLACK
6
CONTINUOUS
10
113.734
20
-42.878
11
113.736
21
-42.8785
0
LINE
8
BLACK
6
CONTINUOUS
10
113.736
20
-42.8785
11
113.737
21
-42.882
0
LINE
8
BLACK
6
CONTINUOUS
10
113.737
20
-42.882
11
113.737
21
-42.882
0
LINE
8
BLACK
6
CONTINUOUS
10
113.737
20
-42.882
11
113.737
21
-55.882
0
LINE
8
BLACK
6
CONTINUOUS
10
113.737
20
-55.882
11
113.737
21
-55.882
0
LINE
8
BLACK
6
CONTINUOUS
10
113.737
20
-55.882
11
113.736
21
-55.8855
0
LINE
8
BLACK
6
CONTINUOUS
10
113.736
20
-55.8855
11
113.734
21
-55.886
0
LINE
8
BLACK
6
CONTINUOUS
10
113.734
20
-55.886
11
113.746
21
-55.9928
0
LINE
8
BLACK
6
CONTINUOUS
10
113.746
20
-55.9928
11
113.783
21
-56.0981
0
LINE
8
BLACK
6
CONTINUOUS
10
113.783
20
-56.0981
11
113.843
21
-56.1926
0
LINE
8
BLACK
6
CONTINUOUS
10
113.843
20
-56.1926
11
113.921
21
-56.2715
0
LINE
8
BLACK
6
CONTINUOUS
10
113.921
20
-56.2715
11
114.016
21
-56.3308
0
LINE
8
BLACK
6
CONTINUOUS
10
114.016
20
-56.3308
11
114.121
21
-56.3676
0
LINE
8
BLACK
6
CONTINUOUS
10
114.121
20
-56.3676
11
114.228
21
-56.3797
0
LINE
8
BLACK
6
CONTINUOUS
10
114.228
20
-56.3797
11
114.228
21
-56.3785
0
LINE
8
BLACK
6
CONTINUOUS
10
114.228
20
-56.3785
11
114.232
21
-56.377
0
LINE
8
BLACK
6
CONTINUOUS
10
114.232
20
-56.377
11
114.232
21
-56.377
0
LINE
8
BLACK
6
CONTINUOUS
10
114.232
20
-56.377
11
127.232
21
-56.377
0
LINE
8
BLACK
6
CONTINUOUS
10
127.232
20
-56.377
11
127.232
21
-56.377
0
LINE
8
BLACK
6
CONTINUOUS
10
127.232
20
-56.377
11
127.236
21
-56.3785
0
LINE
8
BLACK
6
CONTINUOUS
10
127.236
20
-56.3785
11
127.236
21
-56.3797
0
LINE
8
BLACK
6
CONTINUOUS
10
127.236
20
-56.3797
11
127.343
21
-56.3676
0
LINE
8
BLACK
6
CONTINUOUS
10
127.343
20
-56.3676
11
127.448
21
-56.3308
0
LINE
8
BLACK
6
CONTINUOUS
10
127.448
20
-56.3308
11
127.543
21
-56.2715
0
LINE
8
BLACK
6
CONTINUOUS
10
127.543
20
-56.2715
11
127.621
21
-56.1926
0
LINE
8
BLACK
6
CONTINUOUS
10
127.621
20
-56.1926
11
127.681
21
-56.0981
0
LINE
8
BLACK
6
CONTINUOUS
10
127.681
20
-56.0981
11
127.718
21
-55.9928
0
LINE
8
BLACK
6
CONTINUOUS
10
127.718
20
-55.9928
11
127.73
21
-55.886
0
LINE
8
BLACK
6
CONTINUOUS
10
127.73
20
-55.886
11
127.728
21
-55.8855
0
LINE
8
BLACK
6
CONTINUOUS
10
127.728
20
-55.8855
11
127.727
21
-55.882
0
LINE
8
BLACK
6
CONTINUOUS
10
127.727
20
-55.882
11
127.727
21
-55.882
0
LINE
8
BLACK
6
CONTINUOUS
10
127.727
20
-55.882
11
127.727
21
-42.8911
0
LINE
8
BLACK
6
CONTINUOUS
10
127.727
20
-42.8911
11
127.727
21
-42.8911
0
LINE
8
BLACK
6
CONTINUOUS
10
127.727
20
-42.8911
11
127.728
21
-42.8875
0
LINE
8
BLACK
6
CONTINUOUS
10
127.728
20
-42.8875
11
127.73
21
-42.887
0
LINE
8
BLACK
6
CONTINUOUS
10
127.73
20
-42.887
11
127.718
21
-42.7802
0
LINE
8
BLACK
6
CONTINUOUS
10
127.718
20
-42.7802
11
127.681
21
-42.6749
0
LINE
8
BLACK
6
CONTINUOUS
10
127.681
20
-42.6749
11
127.621
21
-42.5805
0
LINE
8
BLACK
6
CONTINUOUS
10
127.621
20
-42.5805
11
127.543
21
-42.5016
0
LINE
8
BLACK
6
CONTINUOUS
10
127.543
20
-42.5016
11
127.448
21
-42.4423
0
LINE
8
BLACK
6
CONTINUOUS
10
127.448
20
-42.4423
11
127.343
21
-42.4054
0
LINE
8
BLACK
6
CONTINUOUS
10
127.343
20
-42.4054
11
127.236
21
-42.3934
0
LINE
8
BLACK
6
CONTINUOUS
10
127.236
20
-42.3934
11
127.236
21
-42.3946
0
LINE
8
BLACK
6
CONTINUOUS
10
127.236
20
-42.3946
11
127.236
21
-42.3946
0
LINE
8
BLACK
6
CONTINUOUS
10
127.236
20
-42.3946
11
127.236
21
-42.3946
0
LINE
8
BLACK
6
CONTINUOUS
10
127.236
20
-42.3946
11
127.235
21
-42.3949
0
LINE
8
BLACK
6
CONTINUOUS
10
127.235
20
-42.3949
11
127.232
21
-42.3961
0
LINE
8
BLACK
6
CONTINUOUS
10
127.232
20
-42.3961
11
127.232
21
-42.3961
0
LINE
8
BLACK
6
CONTINUOUS
10
127.232
20
-42.3961
11
127.232
21
-42.3961
0
LINE
8
BLACK
6
CONTINUOUS
10
127.232
20
-42.3961
11
114.232
21
-42.387
0
LINE
8
BLACK
6
CONTINUOUS
10
114.232
20
-42.387
11
114.232
21
-42.387
0
LINE
8
BLACK
6
CONTINUOUS
10
114.232
20
-42.387
11
114.232
21
-42.387
0
LINE
8
BLACK
6
CONTINUOUS
10
114.232
20
-42.387
11
114.232
21
-42.387
0
LINE
8
BLACK
6
CONTINUOUS
10
114.232
20
-42.387
11
114.231
21
-42.3868
0
LINE
8
BLACK
6
CONTINUOUS
10
114.231
20
-42.3868
11
114.228
21
-42.3855
0
LINE
8
BLACK
6
CONTINUOUS
10
114.228
20
-42.3855
11
114.228
21
-42.3855
0
LINE
8
BLACK
6
CONTINUOUS
10
114.228
20
-42.3855
11
114.228
21
-42.3843
0
LINE
8
BLACK
6
CONTINUOUS
10
78.188
20
-40.493
11
91.188
21
-40.5021
0
LINE
8
BLACK
6
CONTINUOUS
10
91.188
20
-40.5021
11
91.188
21
-40.5021
0
LINE
8
BLACK
6
CONTINUOUS
10
91.188
20
-40.5021
11
91.3004
21
-40.5147
0
LINE
8
BLACK
6
CONTINUOUS
10
91.3004
20
-40.5147
11
91.4071
21
-40.5521
0
LINE
8
BLACK
6
CONTINUOUS
10
91.4071
20
-40.5521
11
91.5029
21
-40.6122
0
LINE
8
BLACK
6
CONTINUOUS
10
91.5029
20
-40.6122
11
91.5828
21
-40.6922
0
LINE
8
BLACK
6
CONTINUOUS
10
91.5828
20
-40.6922
11
91.643
21
-40.788
0
LINE
8
BLACK
6
CONTINUOUS
10
91.643
20
-40.788
11
91.6803
21
-40.8947
0
LINE
8
BLACK
6
CONTINUOUS
10
91.6803
20
-40.8947
11
91.693
21
-41.0071
0
LINE
8
BLACK
6
CONTINUOUS
10
91.693
20
-41.0071
11
91.693
21
-41.0071
0
LINE
8
BLACK
6
CONTINUOUS
10
91.693
20
-41.0071
11
91.693
21
-53.998
0
LINE
8
BLACK
6
CONTINUOUS
10
91.693
20
-53.998
11
91.693
21
-53.998
0
LINE
8
BLACK
6
CONTINUOUS
10
91.693
20
-53.998
11
91.6803
21
-54.1104
0
LINE
8
BLACK
6
CONTINUOUS
10
91.6803
20
-54.1104
11
91.643
21
-54.2171
0
LINE
8
BLACK
6
CONTINUOUS
10
91.643
20
-54.2171
11
91.5828
21
-54.3129
0
LINE
8
BLACK
6
CONTINUOUS
10
91.5828
20
-54.3129
11
91.5029
21
-54.3928
0
LINE
8
BLACK
6
CONTINUOUS
10
91.5029
20
-54.3928
11
91.4071
21
-54.453
0
LINE
8
BLACK
6
CONTINUOUS
10
91.4071
20
-54.453
11
91.3004
21
-54.4903
0
LINE
8
BLACK
6
CONTINUOUS
10
91.3004
20
-54.4903
11
91.188
21
-54.503
0
LINE
8
BLACK
6
CONTINUOUS
10
91.188
20
-54.503
11
91.188
21
-54.503
0
LINE
8
BLACK
6
CONTINUOUS
10
91.188
20
-54.503
11
78.188
21
-54.503
0
LINE
8
BLACK
6
CONTINUOUS
10
78.188
20
-54.503
11
78.188
21
-54.503
0
LINE
8
BLACK
6
CONTINUOUS
10
78.188
20
-54.503
11
78.0756
21
-54.4903
0
LINE
8
BLACK
6
CONTINUOUS
10
78.0756
20
-54.4903
11
77.9689
21
-54.453
0
LINE
8
BLACK
6
CONTINUOUS
10
77.9689
20
-54.453
11
77.8731
21
-54.3928
0
LINE
8
BLACK
6
CONTINUOUS
10
77.8731
20
-54.3928
11
77.7932
21
-54.3129
0
LINE
8
BLACK
6
CONTINUOUS
10
77.7932
20
-54.3129
11
77.733
21
-54.2171
0
LINE
8
BLACK
6
CONTINUOUS
10
77.733
20
-54.2171
11
77.6957
21
-54.1104
0
LINE
8
BLACK
6
CONTINUOUS
10
77.6957
20
-54.1104
11
77.683
21
-53.998
0
LINE
8
BLACK
6
CONTINUOUS
10
77.683
20
-53.998
11
77.683
21
-53.998
0
LINE
8
BLACK
6
CONTINUOUS
10
77.683
20
-53.998
11
77.683
21
-40.998
0
LINE
8
BLACK
6
CONTINUOUS
10
77.683
20
-40.998
11
77.683
21
-40.998
0
LINE
8
BLACK
6
CONTINUOUS
10
77.683
20
-40.998
11
77.6957
21
-40.8856
0
LINE
8
BLACK
6
CONTINUOUS
10
77.6957
20
-40.8856
11
77.733
21
-40.7789
0
LINE
8
BLACK
6
CONTINUOUS
10
77.733
20
-40.7789
11
77.7932
21
-40.6831
0
LINE
8
BLACK
6
CONTINUOUS
10
77.7932
20
-40.6831
11
77.8731
21
-40.6032
0
LINE
8
BLACK
6
CONTINUOUS
10
77.8731
20
-40.6032
11
77.9689
21
-40.543
0
LINE
8
BLACK
6
CONTINUOUS
10
77.9689
20
-40.543
11
78.0756
21
-40.5057
0
LINE
8
BLACK
6
CONTINUOUS
10
78.0756
20
-40.5057
11
78.188
21
-40.493
0
LINE
8
BLACK
6
CONTINUOUS
10
78.188
20
-40.493
11
78.188
21
-40.493
0
LINE
8
BLACK
6
CONTINUOUS
10
78.184
20
-40.5003
11
78.0772
21
-40.5124
0
LINE
8
BLACK
6
CONTINUOUS
10
78.0772
20
-40.5124
11
77.9719
21
-40.5492
0
LINE
8
BLACK
6
CONTINUOUS
10
77.9719
20
-40.5492
11
77.8774
21
-40.6085
0
LINE
8
BLACK
6
CONTINUOUS
10
77.8774
20
-40.6085
11
77.7985
21
-40.6874
0
LINE
8
BLACK
6
CONTINUOUS
10
77.7985
20
-40.6874
11
77.7392
21
-40.7819
0
LINE
8
BLACK
6
CONTINUOUS
10
77.7392
20
-40.7819
11
77.7024
21
-40.8872
0
LINE
8
BLACK
6
CONTINUOUS
10
77.7024
20
-40.8872
11
77.6903
21
-40.994
0
LINE
8
BLACK
6
CONTINUOUS
10
77.6903
20
-40.994
11
77.6915
21
-40.9945
0
LINE
8
BLACK
6
CONTINUOUS
10
77.6915
20
-40.9945
11
77.693
21
-40.998
0
LINE
8
BLACK
6
CONTINUOUS
10
77.693
20
-40.998
11
77.693
21
-40.998
0
LINE
8
BLACK
6
CONTINUOUS
10
77.693
20
-40.998
11
77.693
21
-53.998
0
LINE
8
BLACK
6
CONTINUOUS
10
77.693
20
-53.998
11
77.693
21
-53.998
0
LINE
8
BLACK
6
CONTINUOUS
10
77.693
20
-53.998
11
77.6915
21
-54.0015
0
LINE
8
BLACK
6
CONTINUOUS
10
77.6915
20
-54.0015
11
77.6903
21
-54.002
0
LINE
8
BLACK
6
CONTINUOUS
10
77.6903
20
-54.002
11
77.7024
21
-54.1088
0
LINE
8
BLACK
6
CONTINUOUS
10
77.7024
20
-54.1088
11
77.7392
21
-54.2141
0
LINE
8
BLACK
6
CONTINUOUS
10
77.7392
20
-54.2141
11
77.7985
21
-54.3086
0
LINE
8
BLACK
6
CONTINUOUS
10
77.7985
20
-54.3086
11
77.8774
21
-54.3875
0
LINE
8
BLACK
6
CONTINUOUS
10
77.8774
20
-54.3875
11
77.9719
21
-54.4468
0
LINE
8
BLACK
6
CONTINUOUS
10
77.9719
20
-54.4468
11
78.0772
21
-54.4836
0
LINE
8
BLACK
6
CONTINUOUS
10
78.0772
20
-54.4836
11
78.184
21
-54.4957
0
LINE
8
BLACK
6
CONTINUOUS
10
78.184
20
-54.4957
11
78.1845
21
-54.4945
0
LINE
8
BLACK
6
CONTINUOUS
10
78.1845
20
-54.4945
11
78.188
21
-54.493
0
LINE
8
BLACK
6
CONTINUOUS
10
78.188
20
-54.493
11
78.188
21
-54.493
0
LINE
8
BLACK
6
CONTINUOUS
10
78.188
20
-54.493
11
91.188
21
-54.493
0
LINE
8
BLACK
6
CONTINUOUS
10
91.188
20
-54.493
11
91.188
21
-54.493
0
LINE
8
BLACK
6
CONTINUOUS
10
91.188
20
-54.493
11
91.1915
21
-54.4945
0
LINE
8
BLACK
6
CONTINUOUS
10
91.1915
20
-54.4945
11
91.192
21
-54.4957
0
LINE
8
BLACK
6
CONTINUOUS
10
91.192
20
-54.4957
11
91.2988
21
-54.4836
0
LINE
8
BLACK
6
CONTINUOUS
10
91.2988
20
-54.4836
11
91.4041
21
-54.4468
0
LINE
8
BLACK
6
CONTINUOUS
10
91.4041
20
-54.4468
11
91.4986
21
-54.3875
0
LINE
8
BLACK
6
CONTINUOUS
10
91.4986
20
-54.3875
11
91.5775
21
-54.3086
0
LINE
8
BLACK
6
CONTINUOUS
10
91.5775
20
-54.3086
11
91.6368
21
-54.2141
0
LINE
8
BLACK
6
CONTINUOUS
10
91.6368
20
-54.2141
11
91.6736
21
-54.1088
0
LINE
8
BLACK
6
CONTINUOUS
10
91.6736
20
-54.1088
11
91.6857
21
-54.002
0
LINE
8
BLACK
6
CONTINUOUS
10
91.6857
20
-54.002
11
91.6845
21
-54.0015
0
LINE
8
BLACK
6
CONTINUOUS
10
91.6845
20
-54.0015
11
91.683
21
-53.998
0
LINE
8
BLACK
6
CONTINUOUS
10
91.683
20
-53.998
11
91.683
21
-53.998
0
LINE
8
BLACK
6
CONTINUOUS
10
91.683
20
-53.998
11
91.683
21
-41.0071
0
LINE
8
BLACK
6
CONTINUOUS
10
91.683
20
-41.0071
11
91.683
21
-41.0071
0
LINE
8
BLACK
6
CONTINUOUS
10
91.683
20
-41.0071
11
91.6845
21
-41.0035
0
LINE
8
BLACK
6
CONTINUOUS
10
91.6845
20
-41.0035
11
91.6857
21
-41.003
0
LINE
8
BLACK
6
CONTINUOUS
10
91.6857
20
-41.003
11
91.6736
21
-40.8962
0
LINE
8
BLACK
6
CONTINUOUS
10
91.6736
20
-40.8962
11
91.6368
21
-40.7909
0
LINE
8
BLACK
6
CONTINUOUS
10
91.6368
20
-40.7909
11
91.5775
21
-40.6965
0
LINE
8
BLACK
6
CONTINUOUS
10
91.5775
20
-40.6965
11
91.4986
21
-40.6176
0
LINE
8
BLACK
6
CONTINUOUS
10
91.4986
20
-40.6176
11
91.4041
21
-40.5583
0
LINE
8
BLACK
6
CONTINUOUS
10
91.4041
20
-40.5583
11
91.2988
21
-40.5214
0
LINE
8
BLACK
6
CONTINUOUS
10
91.2988
20
-40.5214
11
91.192
21
-40.5094
0
LINE
8
BLACK
6
CONTINUOUS
10
91.192
20
-40.5094
11
91.1915
21
-40.5106
0
LINE
8
BLACK
6
CONTINUOUS
10
91.1915
20
-40.5106
11
91.1915
21
-40.5106
0
LINE
8
BLACK
6
CONTINUOUS
10
91.1915
20
-40.5106
11
91.1915
21
-40.5106
0
LINE
8
BLACK
6
CONTINUOUS
10
91.1915
20
-40.5106
11
91.1907
21
-40.5109
0
LINE
8
BLACK
6
CONTINUOUS
10
91.1907
20
-40.5109
11
91.188
21
-40.5121
0
LINE
8
BLACK
6
CONTINUOUS
10
91.188
20
-40.5121
11
91.188
21
-40.5121
0
LINE
8
BLACK
6
CONTINUOUS
10
91.188
20
-40.5121
11
91.188
21
-40.5121
0
LINE
8
BLACK
6
CONTINUOUS
10
91.188
20
-40.5121
11
78.188
21
-40.503
0
LINE
8
BLACK
6
CONTINUOUS
10
78.188
20
-40.503
11
78.188
21
-40.503
0
LINE
8
BLACK
6
CONTINUOUS
10
78.188
20
-40.503
11
78.188
21
-40.503
0
LINE
8
BLACK
6
CONTINUOUS
10
78.188
20
-40.503
11
78.188
21
-40.503
0
LINE
8
BLACK
6
CONTINUOUS
10
78.188
20
-40.503
11
78.1874
21
-40.5028
0
LINE
8
BLACK
6
CONTINUOUS
10
78.1874
20
-40.5028
11
78.1845
21
-40.5015
0
LINE
8
BLACK
6
CONTINUOUS
10
78.1845
20
-40.5015
11
78.1845
21
-40.5015
0
LINE
8
BLACK
6
CONTINUOUS
10
78.1845
20
-40.5015
11
78.184
21
-40.5003
0
LINE
8
BLACK
6
CONTINUOUS
10
55.2984
20
-31.3897
11
55.4051
21
-31.427
0
LINE
8
BLACK
6
CONTINUOUS
10
55.4051
20
-31.427
11
55.5009
21
-31.4872
0
LINE
8
BLACK
6
CONTINUOUS
10
55.5009
20
-31.4872
11
55.5808
21
-31.5671
0
LINE
8
BLACK
6
CONTINUOUS
10
55.5808
20
-31.5671
11
55.641
21
-31.6629
0
LINE
8
BLACK
6
CONTINUOUS
10
55.641
20
-31.6629
11
55.6783
21
-31.7696
0
LINE
8
BLACK
6
CONTINUOUS
10
55.6783
20
-31.7696
11
55.691
21
-31.882
0
LINE
8
BLACK
6
CONTINUOUS
10
55.691
20
-31.882
11
55.691
21
-31.882
0
LINE
8
BLACK
6
CONTINUOUS
10
55.691
20
-31.882
11
55.691
21
-44.882
0
LINE
8
BLACK
6
CONTINUOUS
10
55.691
20
-44.882
11
55.691
21
-44.882
0
LINE
8
BLACK
6
CONTINUOUS
10
55.691
20
-44.882
11
55.6783
21
-44.9944
0
LINE
8
BLACK
6
CONTINUOUS
10
55.6783
20
-44.9944
11
55.641
21
-45.1011
0
LINE
8
BLACK
6
CONTINUOUS
10
55.641
20
-45.1011
11
55.5808
21
-45.1969
0
LINE
8
BLACK
6
CONTINUOUS
10
55.5808
20
-45.1969
11
55.5009
21
-45.2768
0
LINE
8
BLACK
6
CONTINUOUS
10
55.5009
20
-45.2768
11
55.4051
21
-45.337
0
LINE
8
BLACK
6
CONTINUOUS
10
55.4051
20
-45.337
11
55.2984
21
-45.3743
0
LINE
8
BLACK
6
CONTINUOUS
10
55.2984
20
-45.3743
11
55.186
21
-45.387
0
LINE
8
BLACK
6
CONTINUOUS
10
55.186
20
-45.387
11
55.186
21
-45.387
0
LINE
8
BLACK
6
CONTINUOUS
10
55.186
20
-45.387
11
55.186
21
-45.387
0
LINE
8
BLACK
6
CONTINUOUS
10
55.186
20
-45.387
11
42.186
21
-45.3779
0
LINE
8
BLACK
6
CONTINUOUS
10
42.186
20
-45.3779
11
42.186
21
-45.3779
0
LINE
8
BLACK
6
CONTINUOUS
10
42.186
20
-45.3779
11
42.0736
21
-45.3653
0
LINE
8
BLACK
6
CONTINUOUS
10
42.0736
20
-45.3653
11
41.9669
21
-45.3279
0
LINE
8
BLACK
6
CONTINUOUS
10
41.9669
20
-45.3279
11
41.8711
21
-45.2678
0
LINE
8
BLACK
6
CONTINUOUS
10
41.8711
20
-45.2678
11
41.7912
21
-45.1878
0
LINE
8
BLACK
6
CONTINUOUS
10
41.7912
20
-45.1878
11
41.731
21
-45.092
0
LINE
8
BLACK
6
CONTINUOUS
10
41.731
20
-45.092
11
41.6937
21
-44.9853
0
LINE
8
BLACK
6
CONTINUOUS
10
41.6937
20
-44.9853
11
41.681
21
-44.8729
0
LINE
8
BLACK
6
CONTINUOUS
10
41.681
20
-44.8729
11
41.681
21
-44.8729
0
LINE
8
BLACK
6
CONTINUOUS
10
41.681
20
-44.8729
11
41.681
21
-31.882
0
LINE
8
BLACK
6
CONTINUOUS
10
41.681
20
-31.882
11
41.681
21
-31.882
0
LINE
8
BLACK
6
CONTINUOUS
10
41.681
20
-31.882
11
41.6937
21
-31.7696
0
LINE
8
BLACK
6
CONTINUOUS
10
41.6937
20
-31.7696
11
41.731
21
-31.6629
0
LINE
8
BLACK
6
CONTINUOUS
10
41.731
20
-31.6629
11
41.7912
21
-31.5671
0
LINE
8
BLACK
6
CONTINUOUS
10
41.7912
20
-31.5671
11
41.8711
21
-31.4872
0
LINE
8
BLACK
6
CONTINUOUS
10
41.8711
20
-31.4872
11
41.9669
21
-31.427
0
LINE
8
BLACK
6
CONTINUOUS
10
41.9669
20
-31.427
11
42.0736
21
-31.3897
0
LINE
8
BLACK
6
CONTINUOUS
10
42.0736
20
-31.3897
11
42.186
21
-31.377
0
LINE
8
BLACK
6
CONTINUOUS
10
42.186
20
-31.377
11
42.186
21
-31.377
0
LINE
8
BLACK
6
CONTINUOUS
10
42.186
20
-31.377
11
55.186
21
-31.377
0
LINE
8
BLACK
6
CONTINUOUS
10
55.186
20
-31.377
11
55.186
21
-31.377
0
LINE
8
BLACK
6
CONTINUOUS
10
55.186
20
-31.377
11
55.2984
21
-31.3897
0
LINE
8
BLACK
6
CONTINUOUS
10
42.1837
20
-45.3689
11
42.186
21
-45.3679
0
LINE
8
BLACK
6
CONTINUOUS
10
42.186
20
-45.3679
11
42.186
21
-45.3679
0
LINE
8
BLACK
6
CONTINUOUS
10
42.186
20
-45.3679
11
55.186
21
-45.377
0
LINE
8
BLACK
6
CONTINUOUS
10
55.186
20
-45.377
11
55.186
21
-45.377
0
LINE
8
BLACK
6
CONTINUOUS
10
55.186
20
-45.377
11
55.186
21
-45.377
0
LINE
8
BLACK
6
CONTINUOUS
10
55.186
20
-45.377
11
55.186
21
-45.377
0
LINE
8
BLACK
6
CONTINUOUS
10
55.186
20
-45.377
11
55.1866
21
-45.3772
0
LINE
8
BLACK
6
CONTINUOUS
10
55.1866
20
-45.3772
11
55.1895
21
-45.3785
0
LINE
8
BLACK
6
CONTINUOUS
10
55.1895
20
-45.3785
11
55.1895
21
-45.3785
0
LINE
8
BLACK
6
CONTINUOUS
10
55.1895
20
-45.3785
11
55.19
21
-45.3797
0
LINE
8
BLACK
6
CONTINUOUS
10
55.19
20
-45.3797
11
55.2968
21
-45.3676
0
LINE
8
BLACK
6
CONTINUOUS
10
55.2968
20
-45.3676
11
55.4021
21
-45.3308
0
LINE
8
BLACK
6
CONTINUOUS
10
55.4021
20
-45.3308
11
55.4966
21
-45.2715
0
LINE
8
BLACK
6
CONTINUOUS
10
55.4966
20
-45.2715
11
55.5755
21
-45.1926
0
LINE
8
BLACK
6
CONTINUOUS
10
55.5755
20
-45.1926
11
55.6348
21
-45.0981
0
LINE
8
BLACK
6
CONTINUOUS
10
55.6348
20
-45.0981
11
55.6716
21
-44.9928
0
LINE
8
BLACK
6
CONTINUOUS
10
55.6716
20
-44.9928
11
55.6837
21
-44.886
0
LINE
8
BLACK
6
CONTINUOUS
10
55.6837
20
-44.886
11
55.6825
21
-44.8855
0
LINE
8
BLACK
6
CONTINUOUS
10
55.6825
20
-44.8855
11
55.681
21
-44.882
0
LINE
8
BLACK
6
CONTINUOUS
10
55.681
20
-44.882
11
55.681
21
-44.882
0
LINE
8
BLACK
6
CONTINUOUS
10
55.681
20
-44.882
11
55.681
21
-31.882
0
LINE
8
BLACK
6
CONTINUOUS
10
55.681
20
-31.882
11
55.681
21
-31.882
0
LINE
8
BLACK
6
CONTINUOUS
10
55.681
20
-31.882
11
55.6825
21
-31.8785
0
LINE
8
BLACK
6
CONTINUOUS
10
55.6825
20
-31.8785
11
55.6837
21
-31.878
0
LINE
8
BLACK
6
CONTINUOUS
10
55.6837
20
-31.878
11
55.6716
21
-31.7712
0
LINE
8
BLACK
6
CONTINUOUS
10
55.6716
20
-31.7712
11
55.6348
21
-31.6659
0
LINE
8
BLACK
6
CONTINUOUS
10
55.6348
20
-31.6659
11
55.5755
21
-31.5714
0
LINE
8
BLACK
6
CONTINUOUS
10
55.5755
20
-31.5714
11
55.4966
21
-31.4925
0
LINE
8
BLACK
6
CONTINUOUS
10
55.4966
20
-31.4925
11
55.4021
21
-31.4332
0
LINE
8
BLACK
6
CONTINUOUS
10
55.4021
20
-31.4332
11
55.2968
21
-31.3964
0
LINE
8
BLACK
6
CONTINUOUS
10
55.2968
20
-31.3964
11
55.19
21
-31.3843
0
LINE
8
BLACK
6
CONTINUOUS
10
55.19
20
-31.3843
11
55.1895
21
-31.3855
0
LINE
8
BLACK
6
CONTINUOUS
10
55.1895
20
-31.3855
11
55.186
21
-31.387
0
LINE
8
BLACK
6
CONTINUOUS
10
55.186
20
-31.387
11
55.186
21
-31.387
0
LINE
8
BLACK
6
CONTINUOUS
10
55.186
20
-31.387
11
42.186
21
-31.387
0
LINE
8
BLACK
6
CONTINUOUS
10
42.186
20
-31.387
11
42.186
21
-31.387
0
LINE
8
BLACK
6
CONTINUOUS
10
42.186
20
-31.387
11
42.1825
21
-31.3855
0
LINE
8
BLACK
6
CONTINUOUS
10
42.1825
20
-31.3855
11
42.182
21
-31.3843
0
LINE
8
BLACK
6
CONTINUOUS
10
42.182
20
-31.3843
11
42.0752
21
-31.3964
0
LINE
8
BLACK
6
CONTINUOUS
10
42.0752
20
-31.3964
11
41.9699
21
-31.4332
0
LINE
8
BLACK
6
CONTINUOUS
10
41.9699
20
-31.4332
11
41.8754
21
-31.4925
0
LINE
8
BLACK
6
CONTINUOUS
10
41.8754
20
-31.4925
11
41.7965
21
-31.5714
0
LINE
8
BLACK
6
CONTINUOUS
10
41.7965
20
-31.5714
11
41.7372
21
-31.6659
0
LINE
8
BLACK
6
CONTINUOUS
10
41.7372
20
-31.6659
11
41.7004
21
-31.7712
0
LINE
8
BLACK
6
CONTINUOUS
10
41.7004
20
-31.7712
11
41.6883
21
-31.878
0
LINE
8
BLACK
6
CONTINUOUS
10
41.6883
20
-31.878
11
41.6895
21
-31.8785
0
LINE
8
BLACK
6
CONTINUOUS
10
41.6895
20
-31.8785
11
41.691
21
-31.882
0
LINE
8
BLACK
6
CONTINUOUS
10
41.691
20
-31.882
11
41.691
21
-31.882
0
LINE
8
BLACK
6
CONTINUOUS
10
41.691
20
-31.882
11
41.691
21
-44.8729
0
LINE
8
BLACK
6
CONTINUOUS
10
41.691
20
-44.8729
11
41.691
21
-44.8729
0
LINE
8
BLACK
6
CONTINUOUS
10
41.691
20
-44.8729
11
41.6895
21
-44.8765
0
LINE
8
BLACK
6
CONTINUOUS
10
41.6895
20
-44.8765
11
41.6883
21
-44.877
0
LINE
8
BLACK
6
CONTINUOUS
10
41.6883
20
-44.877
11
41.7004
21
-44.9838
0
LINE
8
BLACK
6
CONTINUOUS
10
41.7004
20
-44.9838
11
41.7372
21
-45.0891
0
LINE
8
BLACK
6
CONTINUOUS
10
41.7372
20
-45.0891
11
41.7965
21
-45.1835
0
LINE
8
BLACK
6
CONTINUOUS
10
41.7965
20
-45.1835
11
41.8754
21
-45.2624
0
LINE
8
BLACK
6
CONTINUOUS
10
41.8754
20
-45.2624
11
41.9699
21
-45.3217
0
LINE
8
BLACK
6
CONTINUOUS
10
41.9699
20
-45.3217
11
42.0752
21
-45.3586
0
LINE
8
BLACK
6
CONTINUOUS
10
42.0752
20
-45.3586
11
42.182
21
-45.3706
0
LINE
8
BLACK
6
CONTINUOUS
10
42.182
20
-45.3706
11
42.1825
21
-45.3694
0
LINE
8
BLACK
6
CONTINUOUS
10
42.1825
20
-45.3694
11
42.1825
21
-45.3694
0
LINE
8
BLACK
6
CONTINUOUS
10
42.1825
20
-45.3694
11
42.1837
21
-45.3689
0
LINE
8
BLACK
6
CONTINUOUS
10
96.214
20
-30.377
11
109.214
21
-30.3861
0
LINE
8
BLACK
6
CONTINUOUS
10
109.214
20
-30.3861
11
109.214
21
-30.3861
0
LINE
8
BLACK
6
CONTINUOUS
10
109.214
20
-30.3861
11
109.326
21
-30.3987
0
LINE
8
BLACK
6
CONTINUOUS
10
109.326
20
-30.3987
11
109.433
21
-30.4361
0
LINE
8
BLACK
6
CONTINUOUS
10
109.433
20
-30.4361
11
109.529
21
-30.4962
0
LINE
8
BLACK
6
CONTINUOUS
10
109.529
20
-30.4962
11
109.609
21
-30.5762
0
LINE
8
BLACK
6
CONTINUOUS
10
109.609
20
-30.5762
11
109.669
21
-30.672
0
LINE
8
BLACK
6
CONTINUOUS
10
109.669
20
-30.672
11
109.706
21
-30.7787
0
LINE
8
BLACK
6
CONTINUOUS
10
109.706
20
-30.7787
11
109.719
21
-30.8911
0
LINE
8
BLACK
6
CONTINUOUS
10
109.719
20
-30.8911
11
109.719
21
-30.8911
0
LINE
8
BLACK
6
CONTINUOUS
10
109.719
20
-30.8911
11
109.719
21
-43.882
0
LINE
8
BLACK
6
CONTINUOUS
10
109.719
20
-43.882
11
109.719
21
-43.882
0
LINE
8
BLACK
6
CONTINUOUS
10
109.719
20
-43.882
11
109.706
21
-43.9944
0
LINE
8
BLACK
6
CONTINUOUS
10
109.706
20
-43.9944
11
109.669
21
-44.1011
0
LINE
8
BLACK
6
CONTINUOUS
10
109.669
20
-44.1011
11
109.609
21
-44.1969
0
LINE
8
BLACK
6
CONTINUOUS
10
109.609
20
-44.1969
11
109.529
21
-44.2768
0
LINE
8
BLACK
6
CONTINUOUS
10
109.529
20
-44.2768
11
109.433
21
-44.337
0
LINE
8
BLACK
6
CONTINUOUS
10
109.433
20
-44.337
11
109.326
21
-44.3743
0
LINE
8
BLACK
6
CONTINUOUS
10
109.326
20
-44.3743
11
109.214
21
-44.387
0
LINE
8
BLACK
6
CONTINUOUS
10
109.214
20
-44.387
11
109.214
21
-44.387
0
LINE
8
BLACK
6
CONTINUOUS
10
109.214
20
-44.387
11
96.214
21
-44.387
0
LINE
8
BLACK
6
CONTINUOUS
10
96.214
20
-44.387
11
96.214
21
-44.387
0
LINE
8
BLACK
6
CONTINUOUS
10
96.214
20
-44.387
11
96.1016
21
-44.3743
0
LINE
8
BLACK
6
CONTINUOUS
10
96.1016
20
-44.3743
11
95.9949
21
-44.337
0
LINE
8
BLACK
6
CONTINUOUS
10
95.9949
20
-44.337
11
95.8991
21
-44.2768
0
LINE
8
BLACK
6
CONTINUOUS
10
95.8991
20
-44.2768
11
95.8192
21
-44.1969
0
LINE
8
BLACK
6
CONTINUOUS
10
95.8192
20
-44.1969
11
95.759
21
-44.1011
0
LINE
8
BLACK
6
CONTINUOUS
10
95.759
20
-44.1011
11
95.7217
21
-43.9944
0
LINE
8
BLACK
6
CONTINUOUS
10
95.7217
20
-43.9944
11
95.709
21
-43.882
0
LINE
8
BLACK
6
CONTINUOUS
10
95.709
20
-43.882
11
95.709
21
-43.882
0
LINE
8
BLACK
6
CONTINUOUS
10
95.709
20
-43.882
11
95.709
21
-30.882
0
LINE
8
BLACK
6
CONTINUOUS
10
95.709
20
-30.882
11
95.709
21
-30.882
0
LINE
8
BLACK
6
CONTINUOUS
10
95.709
20
-30.882
11
95.7217
21
-30.7696
0
LINE
8
BLACK
6
CONTINUOUS
10
95.7217
20
-30.7696
11
95.759
21
-30.6629
0
LINE
8
BLACK
6
CONTINUOUS
10
95.759
20
-30.6629
11
95.8192
21
-30.5671
0
LINE
8
BLACK
6
CONTINUOUS
10
95.8192
20
-30.5671
11
95.8991
21
-30.4872
0
LINE
8
BLACK
6
CONTINUOUS
10
95.8991
20
-30.4872
11
95.9949
21
-30.427
0
LINE
8
BLACK
6
CONTINUOUS
10
95.9949
20
-30.427
11
96.1016
21
-30.3897
0
LINE
8
BLACK
6
CONTINUOUS
10
96.1016
20
-30.3897
11
96.214
21
-30.377
0
LINE
8
BLACK
6
CONTINUOUS
10
96.214
20
-30.377
11
96.214
21
-30.377
0
LINE
8
BLACK
6
CONTINUOUS
10
96.21
20
-30.3843
11
96.1032
21
-30.3964
0
LINE
8
BLACK
6
CONTINUOUS
10
96.1032
20
-30.3964
11
95.9979
21
-30.4332
0
LINE
8
BLACK
6
CONTINUOUS
10
95.9979
20
-30.4332
11
95.9034
21
-30.4925
0
LINE
8
BLACK
6
CONTINUOUS
10
95.9034
20
-30.4925
11
95.8245
21
-30.5714
0
LINE
8
BLACK
6
CONTINUOUS
10
95.8245
20
-30.5714
11
95.7652
21
-30.6659
0
LINE
8
BLACK
6
CONTINUOUS
10
95.7652
20
-30.6659
11
95.7284
21
-30.7712
0
LINE
8
BLACK
6
CONTINUOUS
10
95.7284
20
-30.7712
11
95.7163
21
-30.878
0
LINE
8
BLACK
6
CONTINUOUS
10
95.7163
20
-30.878
11
95.7175
21
-30.8785
0
LINE
8
BLACK
6
CONTINUOUS
10
95.7175
20
-30.8785
11
95.719
21
-30.882
0
LINE
8
BLACK
6
CONTINUOUS
10
95.719
20
-30.882
11
95.719
21
-30.882
0
LINE
8
BLACK
6
CONTINUOUS
10
95.719
20
-30.882
11
95.719
21
-43.882
0
LINE
8
BLACK
6
CONTINUOUS
10
95.719
20
-43.882
11
95.719
21
-43.882
0
LINE
8
BLACK
6
CONTINUOUS
10
95.719
20
-43.882
11
95.7175
21
-43.8855
0
LINE
8
BLACK
6
CONTINUOUS
10
95.7175
20
-43.8855
11
95.7163
21
-43.886
0
LINE
8
BLACK
6
CONTINUOUS
10
95.7163
20
-43.886
11
95.7284
21
-43.9928
0
LINE
8
BLACK
6
CONTINUOUS
10
95.7284
20
-43.9928
11
95.7652
21
-44.0981
0
LINE
8
BLACK
6
CONTINUOUS
10
95.7652
20
-44.0981
11
95.8245
21
-44.1926
0
LINE
8
BLACK
6
CONTINUOUS
10
95.8245
20
-44.1926
11
95.9034
21
-44.2715
0
LINE
8
BLACK
6
CONTINUOUS
10
95.9034
20
-44.2715
11
95.9979
21
-44.3308
0
LINE
8
BLACK
6
CONTINUOUS
10
95.9979
20
-44.3308
11
96.1032
21
-44.3676
0
LINE
8
BLACK
6
CONTINUOUS
10
96.1032
20
-44.3676
11
96.21
21
-44.3797
0
LINE
8
BLACK
6
CONTINUOUS
10
96.21
20
-44.3797
11
96.2105
21
-44.3785
0
LINE
8
BLACK
6
CONTINUOUS
10
96.2105
20
-44.3785
11
96.214
21
-44.377
0
LINE
8
BLACK
6
CONTINUOUS
10
96.214
20
-44.377
11
96.214
21
-44.377
0
LINE
8
BLACK
6
CONTINUOUS
10
96.214
20
-44.377
11
109.214
21
-44.377
0
LINE
8
BLACK
6
CONTINUOUS
10
109.214
20
-44.377
11
109.214
21
-44.377
0
LINE
8
BLACK
6
CONTINUOUS
10
109.214
20
-44.377
11
109.218
21
-44.3785
0
LINE
8
BLACK
6
CONTINUOUS
10
109.218
20
-44.3785
11
109.218
21
-44.3797
0
LINE
8
BLACK
6
CONTINUOUS
10
109.218
20
-44.3797
11
109.325
21
-44.3676
0
LINE
8
BLACK
6
CONTINUOUS
10
109.325
20
-44.3676
11
109.43
21
-44.3308
0
LINE
8
BLACK
6
CONTINUOUS
10
109.43
20
-44.3308
11
109.525
21
-44.2715
0
LINE
8
BLACK
6
CONTINUOUS
10
109.525
20
-44.2715
11
109.603
21
-44.1926
0
LINE
8
BLACK
6
CONTINUOUS
10
109.603
20
-44.1926
11
109.663
21
-44.0981
0
LINE
8
BLACK
6
CONTINUOUS
10
109.663
20
-44.0981
11
109.7
21
-43.9928
0
LINE
8
BLACK
6
CONTINUOUS
10
109.7
20
-43.9928
11
109.712
21
-43.886
0
LINE
8
BLACK
6
CONTINUOUS
10
109.712
20
-43.886
11
109.71
21
-43.8855
0
LINE
8
BLACK
6
CONTINUOUS
10
109.71
20
-43.8855
11
109.709
21
-43.882
0
LINE
8
BLACK
6
CONTINUOUS
10
109.709
20
-43.882
11
109.709
21
-43.882
0
LINE
8
BLACK
6
CONTINUOUS
10
109.709
20
-43.882
11
109.709
21
-30.8911
0
LINE
8
BLACK
6
CONTINUOUS
10
109.709
20
-30.8911
11
109.709
21
-30.8911
0
LINE
8
BLACK
6
CONTINUOUS
10
109.709
20
-30.8911
11
109.71
21
-30.8875
0
LINE
8
BLACK
6
CONTINUOUS
10
109.71
20
-30.8875
11
109.712
21
-30.887
0
LINE
8
BLACK
6
CONTINUOUS
10
109.712
20
-30.887
11
109.7
21
-30.7802
0
LINE
8
BLACK
6
CONTINUOUS
10
109.7
20
-30.7802
11
109.663
21
-30.6749
0
LINE
8
BLACK
6
CONTINUOUS
10
109.663
20
-30.6749
11
109.603
21
-30.5805
0
LINE
8
BLACK
6
CONTINUOUS
10
109.603
20
-30.5805
11
109.525
21
-30.5016
0
LINE
8
BLACK
6
CONTINUOUS
10
109.525
20
-30.5016
11
109.43
21
-30.4423
0
LINE
8
BLACK
6
CONTINUOUS
10
109.43
20
-30.4423
11
109.325
21
-30.4054
0
LINE
8
BLACK
6
CONTINUOUS
10
109.325
20
-30.4054
11
109.218
21
-30.3934
0
LINE
8
BLACK
6
CONTINUOUS
10
109.218
20
-30.3934
11
109.218
21
-30.3946
0
LINE
8
BLACK
6
CONTINUOUS
10
109.218
20
-30.3946
11
109.218
21
-30.3946
0
LINE
8
BLACK
6
CONTINUOUS
10
109.218
20
-30.3946
11
109.218
21
-30.3946
0
LINE
8
BLACK
6
CONTINUOUS
10
109.218
20
-30.3946
11
109.217
21
-30.3949
0
LINE
8
BLACK
6
CONTINUOUS
10
109.217
20
-30.3949
11
109.214
21
-30.3961
0
LINE
8
BLACK
6
CONTINUOUS
10
109.214
20
-30.3961
11
109.214
21
-30.3961
0
LINE
8
BLACK
6
CONTINUOUS
10
109.214
20
-30.3961
11
109.214
21
-30.3961
0
LINE
8
BLACK
6
CONTINUOUS
10
109.214
20
-30.3961
11
96.214
21
-30.387
0
LINE
8
BLACK
6
CONTINUOUS
10
96.214
20
-30.387
11
96.214
21
-30.387
0
LINE
8
BLACK
6
CONTINUOUS
10
96.214
20
-30.387
11
96.214
21
-30.387
0
LINE
8
BLACK
6
CONTINUOUS
10
96.214
20
-30.387
11
96.214
21
-30.387
0
LINE
8
BLACK
6
CONTINUOUS
10
96.214
20
-30.387
11
96.2134
21
-30.3868
0
LINE
8
BLACK
6
CONTINUOUS
10
96.2134
20
-30.3868
11
96.2105
21
-30.3855
0
LINE
8
BLACK
6
CONTINUOUS
10
96.2105
20
-30.3855
11
96.2105
21
-30.3855
0
LINE
8
BLACK
6
CONTINUOUS
10
96.2105
20
-30.3855
11
96.21
21
-30.3843
0
LINE
8
BLACK
6
CONTINUOUS
10
60.2
20
-28.877
11
73.2
21
-28.8861
0
LINE
8
BLACK
6
CONTINUOUS
10
73.2
20
-28.8861
11
73.2
21
-28.8861
0
LINE
8
BLACK
6
CONTINUOUS
10
73.2
20
-28.8861
11
73.3124
21
-28.8987
0
LINE
8
BLACK
6
CONTINUOUS
10
73.3124
20
-28.8987
11
73.4191
21
-28.9361
0
LINE
8
BLACK
6
CONTINUOUS
10
73.4191
20
-28.9361
11
73.5149
21
-28.9962
0
LINE
8
BLACK
6
CONTINUOUS
10
73.5149
20
-28.9962
11
73.5948
21
-29.0762
0
LINE
8
BLACK
6
CONTINUOUS
10
73.5948
20
-29.0762
11
73.655
21
-29.172
0
LINE
8
BLACK
6
CONTINUOUS
10
73.655
20
-29.172
11
73.6923
21
-29.2787
0
LINE
8
BLACK
6
CONTINUOUS
10
73.6923
20
-29.2787
11
73.705
21
-29.3911
0
LINE
8
BLACK
6
CONTINUOUS
10
73.705
20
-29.3911
11
73.705
21
-29.3911
0
LINE
8
BLACK
6
CONTINUOUS
10
73.705
20
-29.3911
11
73.705
21
-42.382
0
LINE
8
BLACK
6
CONTINUOUS
10
73.705
20
-42.382
11
73.705
21
-42.382
0
LINE
8
BLACK
6
CONTINUOUS
10
73.705
20
-42.382
11
73.6923
21
-42.4944
0
LINE
8
BLACK
6
CONTINUOUS
10
73.6923
20
-42.4944
11
73.655
21
-42.6011
0
LINE
8
BLACK
6
CONTINUOUS
10
73.655
20
-42.6011
11
73.5948
21
-42.6969
0
LINE
8
BLACK
6
CONTINUOUS
10
73.5948
20
-42.6969
11
73.5149
21
-42.7768
0
LINE
8
BLACK
6
CONTINUOUS
10
73.5149
20
-42.7768
11
73.4191
21
-42.837
0
LINE
8
BLACK
6
CONTINUOUS
10
73.4191
20
-42.837
11
73.3124
21
-42.8743
0
LINE
8
BLACK
6
CONTINUOUS
10
73.3124
20
-42.8743
11
73.2
21
-42.887
0
LINE
8
BLACK
6
CONTINUOUS
10
73.2
20
-42.887
11
73.2
21
-42.887
0
LINE
8
BLACK
6
CONTINUOUS
10
73.2
20
-42.887
11
60.2
21
-42.887
0
LINE
8
BLACK
6
CONTINUOUS
10
60.2
20
-42.887
11
60.2
21
-42.887
0
LINE
8
BLACK
6
CONTINUOUS
10
60.2
20
-42.887
11
60.0876
21
-42.8743
0
LINE
8
BLACK
6
CONTINUOUS
10
60.0876
20
-42.8743
11
59.9809
21
-42.837
0
LINE
8
BLACK
6
CONTINUOUS
10
59.9809
20
-42.837
11
59.8851
21
-42.7768
0
LINE
8
BLACK
6
CONTINUOUS
10
59.8851
20
-42.7768
11
59.8052
21
-42.6969
0
LINE
8
BLACK
6
CONTINUOUS
10
59.8052
20
-42.6969
11
59.745
21
-42.6011
0
LINE
8
BLACK
6
CONTINUOUS
10
59.745
20
-42.6011
11
59.7077
21
-42.4944
0
LINE
8
BLACK
6
CONTINUOUS
10
59.7077
20
-42.4944
11
59.695
21
-42.382
0
LINE
8
BLACK
6
CONTINUOUS
10
59.695
20
-42.382
11
59.695
21
-42.382
0
LINE
8
BLACK
6
CONTINUOUS
10
59.695
20
-42.382
11
59.695
21
-29.382
0
LINE
8
BLACK
6
CONTINUOUS
10
59.695
20
-29.382
11
59.695
21
-29.382
0
LINE
8
BLACK
6
CONTINUOUS
10
59.695
20
-29.382
11
59.7077
21
-29.2696
0
LINE
8
BLACK
6
CONTINUOUS
10
59.7077
20
-29.2696
11
59.745
21
-29.1629
0
LINE
8
BLACK
6
CONTINUOUS
10
59.745
20
-29.1629
11
59.8052
21
-29.0671
0
LINE
8
BLACK
6
CONTINUOUS
10
59.8052
20
-29.0671
11
59.8851
21
-28.9872
0
LINE
8
BLACK
6
CONTINUOUS
10
59.8851
20
-28.9872
11
59.9809
21
-28.927
0
LINE
8
BLACK
6
CONTINUOUS
10
59.9809
20
-28.927
11
60.0876
21
-28.8897
0
LINE
8
BLACK
6
CONTINUOUS
10
60.0876
20
-28.8897
11
60.2
21
-28.877
0
LINE
8
BLACK
6
CONTINUOUS
10
60.2
20
-28.877
11
60.2
21
-28.877
0
LINE
8
BLACK
6
CONTINUOUS
10
60.196
20
-28.8843
11
60.0892
21
-28.8964
0
LINE
8
BLACK
6
CONTINUOUS
10
60.0892
20
-28.8964
11
59.9839
21
-28.9332
0
LINE
8
BLACK
6
CONTINUOUS
10
59.9839
20
-28.9332
11
59.8894
21
-28.9925
0
LINE
8
BLACK
6
CONTINUOUS
10
59.8894
20
-28.9925
11
59.8105
21
-29.0714
0
LINE
8
BLACK
6
CONTINUOUS
10
59.8105
20
-29.0714
11
59.7512
21
-29.1659
0
LINE
8
BLACK
6
CONTINUOUS
10
59.7512
20
-29.1659
11
59.7144
21
-29.2712
0
LINE
8
BLACK
6
CONTINUOUS
10
59.7144
20
-29.2712
11
59.7023
21
-29.378
0
LINE
8
BLACK
6
CONTINUOUS
10
59.7023
20
-29.378
11
59.7035
21
-29.3785
0
LINE
8
BLACK
6
CONTINUOUS
10
59.7035
20
-29.3785
11
59.705
21
-29.382
0
LINE
8
BLACK
6
CONTINUOUS
10
59.705
20
-29.382
11
59.705
21
-29.382
0
LINE
8
BLACK
6
CONTINUOUS
10
59.705
20
-29.382
11
59.705
21
-42.382
0
LINE
8
BLACK
6
CONTINUOUS
10
59.705
20
-42.382
11
59.705
21
-42.382
0
LINE
8
BLACK
6
CONTINUOUS
10
59.705
20
-42.382
11
59.7035
21
-42.3855
0
LINE
8
BLACK
6
CONTINUOUS
10
59.7035
20
-42.3855
11
59.7023
21
-42.386
0
LINE
8
BLACK
6
CONTINUOUS
10
59.7023
20
-42.386
11
59.7144
21
-42.4928
0
LINE
8
BLACK
6
CONTINUOUS
10
59.7144
20
-42.4928
11
59.7512
21
-42.5981
0
LINE
8
BLACK
6
CONTINUOUS
10
59.7512
20
-42.5981
11
59.8105
21
-42.6926
0
LINE
8
BLACK
6
CONTINUOUS
10
59.8105
20
-42.6926
11
59.8894
21
-42.7715
0
LINE
8
BLACK
6
CONTINUOUS
10
59.8894
20
-42.7715
11
59.9839
21
-42.8308
0
LINE
8
BLACK
6
CONTINUOUS
10
59.9839
20
-42.8308
11
60.0892
21
-42.8676
0
LINE
8
BLACK
6
CONTINUOUS
10
60.0892
20
-42.8676
11
60.196
21
-42.8797
0
LINE
8
BLACK
6
CONTINUOUS
10
60.196
20
-42.8797
11
60.1965
21
-42.8785
0
LINE
8
BLACK
6
CONTINUOUS
10
60.1965
20
-42.8785
11
60.2
21
-42.877
0
LINE
8
BLACK
6
CONTINUOUS
10
60.2
20
-42.877
11
60.2
21
-42.877
0
LINE
8
BLACK
6
CONTINUOUS
10
60.2
20
-42.877
11
73.2
21
-42.877
0
LINE
8
BLACK
6
CONTINUOUS
10
73.2
20
-42.877
11
73.2
21
-42.877
0
LINE
8
BLACK
6
CONTINUOUS
10
73.2
20
-42.877
11
73.2035
21
-42.8785
0
LINE
8
BLACK
6
CONTINUOUS
10
73.2035
20
-42.8785
11
73.204
21
-42.8797
0
LINE
8
BLACK
6
CONTINUOUS
10
73.204
20
-42.8797
11
73.3108
21
-42.8676
0
LINE
8
BLACK
6
CONTINUOUS
10
73.3108
20
-42.8676
11
73.4161
21
-42.8308
0
LINE
8
BLACK
6
CONTINUOUS
10
73.4161
20
-42.8308
11
73.5106
21
-42.7715
0
LINE
8
BLACK
6
CONTINUOUS
10
73.5106
20
-42.7715
11
73.5895
21
-42.6926
0
LINE
8
BLACK
6
CONTINUOUS
10
73.5895
20
-42.6926
11
73.6488
21
-42.5981
0
LINE
8
BLACK
6
CONTINUOUS
10
73.6488
20
-42.5981
11
73.6856
21
-42.4928
0
LINE
8
BLACK
6
CONTINUOUS
10
73.6856
20
-42.4928
11
73.6977
21
-42.386
0
LINE
8
BLACK
6
CONTINUOUS
10
73.6977
20
-42.386
11
73.6965
21
-42.3855
0
LINE
8
BLACK
6
CONTINUOUS
10
73.6965
20
-42.3855
11
73.695
21
-42.382
0
LINE
8
BLACK
6
CONTINUOUS
10
73.695
20
-42.382
11
73.695
21
-42.382
0
LINE
8
BLACK
6
CONTINUOUS
10
73.695
20
-42.382
11
73.695
21
-29.3911
0
LINE
8
BLACK
6
CONTINUOUS
10
73.695
20
-29.3911
11
73.695
21
-29.3911
0
LINE
8
BLACK
6
CONTINUOUS
10
73.695
20
-29.3911
11
73.6965
21
-29.3875
0
LINE
8
BLACK
6
CONTINUOUS
10
73.6965
20
-29.3875
11
73.6977
21
-29.387
0
LINE
8
BLACK
6
CONTINUOUS
10
73.6977
20
-29.387
11
73.6856
21
-29.2802
0
LINE
8
BLACK
6
CONTINUOUS
10
73.6856
20
-29.2802
11
73.6488
21
-29.1749
0
LINE
8
BLACK
6
CONTINUOUS
10
73.6488
20
-29.1749
11
73.5895
21
-29.0805
0
LINE
8
BLACK
6
CONTINUOUS
10
73.5895
20
-29.0805
11
73.5106
21
-29.0016
0
LINE
8
BLACK
6
CONTINUOUS
10
73.5106
20
-29.0016
11
73.4161
21
-28.9423
0
LINE
8
BLACK
6
CONTINUOUS
10
73.4161
20
-28.9423
11
73.3108
21
-28.9054
0
LINE
8
BLACK
6
CONTINUOUS
10
73.3108
20
-28.9054
11
73.204
21
-28.8934
0
LINE
8
BLACK
6
CONTINUOUS
10
73.204
20
-28.8934
11
73.2035
21
-28.8946
0
LINE
8
BLACK
6
CONTINUOUS
10
73.2035
20
-28.8946
11
73.2035
21
-28.8946
0
LINE
8
BLACK
6
CONTINUOUS
10
73.2035
20
-28.8946
11
73.2035
21
-28.8946
0
LINE
8
BLACK
6
CONTINUOUS
10
73.2035
20
-28.8946
11
73.2027
21
-28.8949
0
LINE
8
BLACK
6
CONTINUOUS
10
73.2027
20
-28.8949
11
73.2
21
-28.8961
0
LINE
8
BLACK
6
CONTINUOUS
10
73.2
20
-28.8961
11
73.2
21
-28.8961
0
LINE
8
BLACK
6
CONTINUOUS
10
73.2
20
-28.8961
11
73.2
21
-28.8961
0
LINE
8
BLACK
6
CONTINUOUS
10
73.2
20
-28.8961
11
60.2
21
-28.887
0
LINE
8
BLACK
6
CONTINUOUS
10
60.2
20
-28.887
11
60.2
21
-28.887
0
LINE
8
BLACK
6
CONTINUOUS
10
60.2
20
-28.887
11
60.2
21
-28.887
0
LINE
8
BLACK
6
CONTINUOUS
10
60.2
20
-28.887
11
60.2
21
-28.887
0
LINE
8
BLACK
6
CONTINUOUS
10
60.2
20
-28.887
11
60.1994
21
-28.8868
0
LINE
8
BLACK
6
CONTINUOUS
10
60.1994
20
-28.8868
11
60.1965
21
-28.8855
0
LINE
8
BLACK
6
CONTINUOUS
10
60.1965
20
-28.8855
11
60.1965
21
-28.8855
0
LINE
8
BLACK
6
CONTINUOUS
10
60.1965
20
-28.8855
11
60.196
21
-28.8843
0
LINE
8
BLACK
6
CONTINUOUS
10
78.188
20
-23.377
11
91.188
21
-23.3861
0
LINE
8
BLACK
6
CONTINUOUS
10
91.188
20
-23.3861
11
91.188
21
-23.3861
0
LINE
8
BLACK
6
CONTINUOUS
10
91.188
20
-23.3861
11
91.3004
21
-23.3987
0
LINE
8
BLACK
6
CONTINUOUS
10
91.3004
20
-23.3987
11
91.4071
21
-23.4361
0
LINE
8
BLACK
6
CONTINUOUS
10
91.4071
20
-23.4361
11
91.5029
21
-23.4962
0
LINE
8
BLACK
6
CONTINUOUS
10
91.5029
20
-23.4962
11
91.5828
21
-23.5762
0
LINE
8
BLACK
6
CONTINUOUS
10
91.5828
20
-23.5762
11
91.643
21
-23.672
0
LINE
8
BLACK
6
CONTINUOUS
10
91.643
20
-23.672
11
91.6803
21
-23.7787
0
LINE
8
BLACK
6
CONTINUOUS
10
91.6803
20
-23.7787
11
91.693
21
-23.8911
0
LINE
8
BLACK
6
CONTINUOUS
10
91.693
20
-23.8911
11
91.693
21
-23.8911
0
LINE
8
BLACK
6
CONTINUOUS
10
91.693
20
-23.8911
11
91.693
21
-36.882
0
LINE
8
BLACK
6
CONTINUOUS
10
91.693
20
-36.882
11
91.693
21
-36.882
0
LINE
8
BLACK
6
CONTINUOUS
10
91.693
20
-36.882
11
91.6803
21
-36.9944
0
LINE
8
BLACK
6
CONTINUOUS
10
91.6803
20
-36.9944
11
91.643
21
-37.1011
0
LINE
8
BLACK
6
CONTINUOUS
10
91.643
20
-37.1011
11
91.5828
21
-37.1969
0
LINE
8
BLACK
6
CONTINUOUS
10
91.5828
20
-37.1969
11
91.5029
21
-37.2768
0
LINE
8
BLACK
6
CONTINUOUS
10
91.5029
20
-37.2768
11
91.4071
21
-37.337
0
LINE
8
BLACK
6
CONTINUOUS
10
91.4071
20
-37.337
11
91.3004
21
-37.3743
0
LINE
8
BLACK
6
CONTINUOUS
10
91.3004
20
-37.3743
11
91.188
21
-37.387
0
LINE
8
BLACK
6
CONTINUOUS
10
91.188
20
-37.387
11
91.188
21
-37.387
0
LINE
8
BLACK
6
CONTINUOUS
10
91.188
20
-37.387
11
78.188
21
-37.387
0
LINE
8
BLACK
6
CONTINUOUS
10
78.188
20
-37.387
11
78.188
21
-37.387
0
LINE
8
BLACK
6
CONTINUOUS
10
78.188
20
-37.387
11
78.0756
21
-37.3743
0
LINE
8
BLACK
6
CONTINUOUS
10
78.0756
20
-37.3743
11
77.9689
21
-37.337
0
LINE
8
BLACK
6
CONTINUOUS
10
77.9689
20
-37.337
11
77.8731
21
-37.2768
0
LINE
8
BLACK
6
CONTINUOUS
10
77.8731
20
-37.2768
11
77.7932
21
-37.1969
0
LINE
8
BLACK
6
CONTINUOUS
10
77.7932
20
-37.1969
11
77.733
21
-37.1011
0
LINE
8
BLACK
6
CONTINUOUS
10
77.733
20
-37.1011
11
77.6957
21
-36.9944
0
LINE
8
BLACK
6
CONTINUOUS
10
77.6957
20
-36.9944
11
77.683
21
-36.882
0
LINE
8
BLACK
6
CONTINUOUS
10
77.683
20
-36.882
11
77.683
21
-36.882
0
LINE
8
BLACK
6
CONTINUOUS
10
77.683
20
-36.882
11
77.683
21
-23.882
0
LINE
8
BLACK
6
CONTINUOUS
10
77.683
20
-23.882
11
77.683
21
-23.882
0
LINE
8
BLACK
6
CONTINUOUS
10
77.683
20
-23.882
11
77.6957
21
-23.7696
0
LINE
8
BLACK
6
CONTINUOUS
10
77.6957
20
-23.7696
11
77.733
21
-23.6629
0
LINE
8
BLACK
6
CONTINUOUS
10
77.733
20
-23.6629
11
77.7932
21
-23.5671
0
LINE
8
BLACK
6
CONTINUOUS
10
77.7932
20
-23.5671
11
77.8731
21
-23.4872
0
LINE
8
BLACK
6
CONTINUOUS
10
77.8731
20
-23.4872
11
77.9689
21
-23.427
0
LINE
8
BLACK
6
CONTINUOUS
10
77.9689
20
-23.427
11
78.0756
21
-23.3897
0
LINE
8
BLACK
6
CONTINUOUS
10
78.0756
20
-23.3897
11
78.188
21
-23.377
0
LINE
8
BLACK
6
CONTINUOUS
10
78.188
20
-23.377
11
78.188
21
-23.377
0
LINE
8
BLACK
6
CONTINUOUS
10
78.184
20
-23.3843
11
78.0772
21
-23.3964
0
LINE
8
BLACK
6
CONTINUOUS
10
78.0772
20
-23.3964
11
77.9719
21
-23.4332
0
LINE
8
BLACK
6
CONTINUOUS
10
77.9719
20
-23.4332
11
77.8774
21
-23.4925
0
LINE
8
BLACK
6
CONTINUOUS
10
77.8774
20
-23.4925
11
77.7985
21
-23.5714
0
LINE
8
BLACK
6
CONTINUOUS
10
77.7985
20
-23.5714
11
77.7392
21
-23.6659
0
LINE
8
BLACK
6
CONTINUOUS
10
77.7392
20
-23.6659
11
77.7024
21
-23.7712
0
LINE
8
BLACK
6
CONTINUOUS
10
77.7024
20
-23.7712
11
77.6903
21
-23.878
0
LINE
8
BLACK
6
CONTINUOUS
10
77.6903
20
-23.878
11
77.6915
21
-23.8785
0
LINE
8
BLACK
6
CONTINUOUS
10
77.6915
20
-23.8785
11
77.693
21
-23.882
0
LINE
8
BLACK
6
CONTINUOUS
10
77.693
20
-23.882
11
77.693
21
-23.882
0
LINE
8
BLACK
6
CONTINUOUS
10
77.693
20
-23.882
11
77.693
21
-36.882
0
LINE
8
BLACK
6
CONTINUOUS
10
77.693
20
-36.882
11
77.693
21
-36.882
0
LINE
8
BLACK
6
CONTINUOUS
10
77.693
20
-36.882
11
77.6915
21
-36.8855
0
LINE
8
BLACK
6
CONTINUOUS
10
77.6915
20
-36.8855
11
77.6903
21
-36.886
0
LINE
8
BLACK
6
CONTINUOUS
10
77.6903
20
-36.886
11
77.7024
21
-36.9928
0
LINE
8
BLACK
6
CONTINUOUS
10
77.7024
20
-36.9928
11
77.7392
21
-37.0981
0
LINE
8
BLACK
6
CONTINUOUS
10
77.7392
20
-37.0981
11
77.7985
21
-37.1926
0
LINE
8
BLACK
6
CONTINUOUS
10
77.7985
20
-37.1926
11
77.8774
21
-37.2715
0
LINE
8
BLACK
6
CONTINUOUS
10
77.8774
20
-37.2715
11
77.9719
21
-37.3308
0
LINE
8
BLACK
6
CONTINUOUS
10
77.9719
20
-37.3308
11
78.0772
21
-37.3676
0
LINE
8
BLACK
6
CONTINUOUS
10
78.0772
20
-37.3676
11
78.184
21
-37.3797
0
LINE
8
BLACK
6
CONTINUOUS
10
78.184
20
-37.3797
11
78.1845
21
-37.3785
0
LINE
8
BLACK
6
CONTINUOUS
10
78.1845
20
-37.3785
11
78.188
21
-37.377
0
LINE
8
BLACK
6
CONTINUOUS
10
78.188
20
-37.377
11
78.188
21
-37.377
0
LINE
8
BLACK
6
CONTINUOUS
10
78.188
20
-37.377
11
91.188
21
-37.377
0
LINE
8
BLACK
6
CONTINUOUS
10
91.188
20
-37.377
11
91.188
21
-37.377
0
LINE
8
BLACK
6
CONTINUOUS
10
91.188
20
-37.377
11
91.1915
21
-37.3785
0
LINE
8
BLACK
6
CONTINUOUS
10
91.1915
20
-37.3785
11
91.192
21
-37.3797
0
LINE
8
BLACK
6
CONTINUOUS
10
91.192
20
-37.3797
11
91.2988
21
-37.3676
0
LINE
8
BLACK
6
CONTINUOUS
10
91.2988
20
-37.3676
11
91.4041
21
-37.3308
0
LINE
8
BLACK
6
CONTINUOUS
10
91.4041
20
-37.3308
11
91.4986
21
-37.2715
0
LINE
8
BLACK
6
CONTINUOUS
10
91.4986
20
-37.2715
11
91.5775
21
-37.1926
0
LINE
8
BLACK
6
CONTINUOUS
10
91.5775
20
-37.1926
11
91.6368
21
-37.0981
0
LINE
8
BLACK
6
CONTINUOUS
10
91.6368
20
-37.0981
11
91.6736
21
-36.9928
0
LINE
8
BLACK
6
CONTINUOUS
10
91.6736
20
-36.9928
11
91.6857
21
-36.886
0
LINE
8
BLACK
6
CONTINUOUS
10
91.6857
20
-36.886
11
91.6845
21
-36.8855
0
LINE
8
BLACK
6
CONTINUOUS
10
91.6845
20
-36.8855
11
91.683
21
-36.882
0
LINE
8
BLACK
6
CONTINUOUS
10
91.683
20
-36.882
11
91.683
21
-36.882
0
LINE
8
BLACK
6
CONTINUOUS
10
91.683
20
-36.882
11
91.683
21
-23.8911
0
LINE
8
BLACK
6
CONTINUOUS
10
91.683
20
-23.8911
11
91.683
21
-23.8911
0
LINE
8
BLACK
6
CONTINUOUS
10
91.683
20
-23.8911
11
91.6845
21
-23.8875
0
LINE
8
BLACK
6
CONTINUOUS
10
91.6845
20
-23.8875
11
91.6857
21
-23.887
0
LINE
8
BLACK
6
CONTINUOUS
10
91.6857
20
-23.887
11
91.6736
21
-23.7802
0
LINE
8
BLACK
6
CONTINUOUS
10
91.6736
20
-23.7802
11
91.6368
21
-23.6749
0
LINE
8
BLACK
6
CONTINUOUS
10
91.6368
20
-23.6749
11
91.5775
21
-23.5805
0
LINE
8
BLACK
6
CONTINUOUS
10
91.5775
20
-23.5805
11
91.4986
21
-23.5016
0
LINE
8
BLACK
6
CONTINUOUS
10
91.4986
20
-23.5016
11
91.4041
21
-23.4423
0
LINE
8
BLACK
6
CONTINUOUS
10
91.4041
20
-23.4423
11
91.2988
21
-23.4054
0
LINE
8
BLACK
6
CONTINUOUS
10
91.2988
20
-23.4054
11
91.192
21
-23.3934
0
LINE
8
BLACK
6
CONTINUOUS
10
91.192
20
-23.3934
11
91.1915
21
-23.3946
0
LINE
8
BLACK
6
CONTINUOUS
10
91.1915
20
-23.3946
11
91.1915
21
-23.3946
0
LINE
8
BLACK
6
CONTINUOUS
10
91.1915
20
-23.3946
11
91.1915
21
-23.3946
0
LINE
8
BLACK
6
CONTINUOUS
10
91.1915
20
-23.3946
11
91.1907
21
-23.3949
0
LINE
8
BLACK
6
CONTINUOUS
10
91.1907
20
-23.3949
11
91.188
21
-23.3961
0
LINE
8
BLACK
6
CONTINUOUS
10
91.188
20
-23.3961
11
91.188
21
-23.3961
0
LINE
8
BLACK
6
CONTINUOUS
10
91.188
20
-23.3961
11
91.188
21
-23.3961
0
LINE
8
BLACK
6
CONTINUOUS
10
91.188
20
-23.3961
11
78.188
21
-23.387
0
LINE
8
BLACK
6
CONTINUOUS
10
78.188
20
-23.387
11
78.188
21
-23.387
0
LINE
8
BLACK
6
CONTINUOUS
10
78.188
20
-23.387
11
78.188
21
-23.387
0
LINE
8
BLACK
6
CONTINUOUS
10
78.188
20
-23.387
11
78.188
21
-23.387
0
LINE
8
BLACK
6
CONTINUOUS
10
78.188
20
-23.387
11
78.1874
21
-23.3868
0
LINE
8
BLACK
6
CONTINUOUS
10
78.1874
20
-23.3868
11
78.1845
21
-23.3855
0
LINE
8
BLACK
6
CONTINUOUS
10
78.1845
20
-23.3855
11
78.1845
21
-23.3855
0
LINE
8
BLACK
6
CONTINUOUS
10
78.1845
20
-23.3855
11
78.184
21
-23.3843
  0
ENDSEC
  0
EOF
